PrimaNota.ru - самый крупный в мире бесплатный архив песенных текстов, аккордов, табулатур и нот


Corneille - Le Bon Dieu Est Une Femme - текст песни, таба, видео

Регистрация Запомнить меня
Войти через:  Facebook Google Twitter Vk Yandex Mail.ru

Corneille - Le Bon Dieu Est Une Femme - текст песни, таба, видео

Печатать
Просмотров: 143
-------------------------------------------------------------------------
LE BON DIEU EST UNE FEMME - Corneille
-------------------------------------------------------------------------
Tabbed by: Kengus

Standard tuning
Capo on second fret!

VERSE1 (not three first lines, which are basically just vocals)
  G                                         Gadd9       Am
e|-----------------------------------------------------------------------|
B|--------0-----------0---------------0-----------0-----------1----------|
G|------0---0-------0---0-----0-----0---0-------2---2-0-----2---2-----2--|
D|----0-------0---0-------0h2-----0-------0---0-----------2-------2------|
A|------------------------------------------------------0-----------0----|
E|--3-----------3---------------3-----------3----------------------------|
                       Asus2   Gadd9
e|---0-------------------------------------------------------------------|
B|-1---1---------1-----------0-------0-----------0-----------------------|
G|-------2-----2---2-------2-------2---2-------2-------------------------|
D|-----------2-------2---2-------0-------0---0---------------------------|
A|---------0-----------0-------------------------------------------------|
E|-----------------------------3-----------3-----------------------------|

(G)                                         (Am)
     La terre saigne depuis la nuit des temps

De grandes misères et de guerres souvent
                                             G  (picking starts here) 
Et pour chaque soldat qui rentre une femme attend
               Gadd9                   Am
Les hommes, les pires et les tout-puissants

Les pires bourreaux et même Adolf vivant
                Asus2                      Gadd9
Avaient tous au moins une femme qui les aimait tant


PRE-CHORUS (played more or less like this)
   Cadd9                                     C           Cadd9
e|-------0-----------------------------------------3-------------0-------|
B|-------3-------1-------3-------------3-------------1---------3---3-----|
G|-----0-0---0---0-----0-------------0---0-------0-----0-----0-------0---|
D|---2-----2---2-----2-----0h2-2---2-------2---2-----------2-------------|
A|-3---------------3-------------3-----------3-----------3---------------|
E|-----------------------------------------------------------------------|
                  Dadd4add9      Dadd4
e|---------0---------------0---------------------------------------------|
B|-------3---3-----------3---3---------3---------------------------------|
G|-----0-------0-------0-------0-----0-----------------------------------|
D|---2---------------4-------------4-------------------------------------|
A|-3-------------3/5-------------5---------------------------------------|
E|-----------------------------------------------------------------------|

Cadd9                                     
     Quand c'est pas une soeur, c'est une mère qui aime
                      C
Et quand c'est pas la mère, c'est l'épouse qui aime
Cadd9
     Et quand c'est pas l'épouse, c'est une autre femme
Dadd4add9                Dadd4
  Ou une maîtresse qui espère, alors


CHORUS
   Am            C             Gadd9       Gsus2-G-Gsus2  Am        C
e|---------0--------------------------------------------------0----------|
B|-------1---1---------1-0-----------0----------------------1---1--------|
G|-----2-------2-----0-----0-------2---2-----222-44-2-----2-------2------|
D|---2-------------2---------2---0-------0---000-00-0---2-------------2--|
A|-0-------------3---------------------------000-22-0-0-------------3----|
E|-----------------------------3-----------3-333-33-3--------------------|
             Gadd9      Gsus2-G-Gsus2  Am         C               Em7
e|------------------------------------------0----------------------------|
B|---1-0-----------0----------------------1---1-----------1-0------------|
G|-0-----0-------2---2-----222-44-2-----2-------2-------0-----0-------0--|
D|---------2---0-------0---000-00-0---2-------------0h2---------2---2----|
A|-------------------------000-22-0-0-------------3----------------------|
E|-----------3-----------3-333-33-3-------------------------------0------|
                      Am             C       Cadd9-C
e|-----0----------------------------------------0--~--|
B|-3-------3---0---3-----------0h1---------1--3-3-1~--|
G|---2---2---2---2---------2-------2-----0----0-0-0~--|
D|---------------------0h2---2---------2------2-2-2~--|
A|-------------------0---------------3--------3-3-3~--|
E|-------------------------------------------------~--|

Am       C                     Gadd9         Gsus2-G-Gsus2
Si c'est vrai qu'elles nous pardonnent tout
Am       C                        Gadd9        Gsus2-G-Gsus2
Si c'est vrai qu'elles nous aiment malgré tout
Am       C                          Em7
Si c'est vrai qu'elles donnent aux hommes le jour
        Am      C           Cadd9-C
Moi je dis, que le bon Dieu est une femme


VERSE2 (same picking pattern as in verse1)
G                                           Am
   Nos mères paient depuis la nuit des temps

Depuis l'histoire de la pomme d'Adam
                                                        G
Elles portent les maux et les torts du monde tout leur vivant
        Gadd9                          Am
Le ciel bénisse la femme qui aime encore

Un infidèle jusqu'à la mort
                                         Gadd9
Faut être Dieu pour être trahie et aimer plus fort


PRE-CHORUS (same as before)
Quand c'est pas une soeur, c'est une mère qui aime
Et quand c'est pas la mère, c'est l'épouse qui aime
Et quand c'est pas l'épouse, c'est une autre femme
Ou une maîtresse qui espère, alors


CHORUS (same as before)
Si c'est vrai qu'elles nous pardonnent tout
Si c'est vrai qu'elles nous aiment malgré tout
Si c'est vrai qu'elles donnent aux hommes le jour
Moi je dis, que le bon Dieu est une femme


BRIDGE
Em                  Bm7                      Am
  Si l'or du monde était dans la main d'une femme         F#m7b5 = 232210
                F#m7b5        B7
On lui ferait la cour pour l'avoir
Em                         Bm7                        C         Dsus4 (D)
  Imagine les hommes s'ils n'avaient qu'à chanter l'amour pour avoir


CHORUS (same as before, repeat x2)
Si c'est vrai qu'elles nous pardonnent tout              
Si c'est vrai qu'elles nous aiment malgré tout
Si c'est vrai qu'elles donnent aux hommes le jour
Moi je dis, que le bon Dieu est une femme


OUTRO (repeat chorus chords until end)

=========================================================================
Comment, rate, appreciate!
Добавлено: 19.06.2012
Другие материалы по этой песне:
  • Аккорды и текст

Страница создана 06.04.2012
http://primanota.ru/corneille/le-bon-dieu-est-une-femme-chords.htm
Привет, Гость.
Предлагаем пройти революционный курс по гитаре.
Подарок от PrimaNota.Ru, забирай!