PrimaNota.ru - самый крупный в мире бесплатный архив песенных текстов, аккордов, табулатур и нот


Corneille - Damour Ou Damitie - таба, видео

Регистрация Запомнить меня
Войти через:  Facebook Google Twitter Vk Yandex Mail.ru

Corneille - Damour Ou Damitie - таба, видео

Печатать
Просмотров: 122
Уроки эстрадного вокала в Санкт-Петербурге
-------------------------------------------------------------------------
D'AMOUR OU D'AMITIÉ - Corneille
-------------------------------------------------------------------------
Tabbed by: Kengus

Standard tuning
Capo on first fret!

VERSE pattern goes a-something like this
   Am                                  F/A       G/B          Am
e|-----------7-5---------------7-5--------------------------------------|
B|-----5-----------5-----5-----------5-----6-----------8----------5-----|
G|---5---5-------5-----5---5-------5-----5---5-------7---7------5---5---|
D|-7-------7---------7-------7---------7-------7-7/9-------9--7-------7-|
A|----------------------------------------------------------------------|
E|----------------------------------------------------------------------|
                             F/A       G/B       Dm7      G    A
e|-7-5---------------7-5------------------------4/5-5-55--3-3--5-5--|
B|-------5-----5-----------5-----6-----------8--5/6-6-66--3-3--5-5--|
G|-----5-----5---5-------5-----5---5-------7----4/5-5-55--4-4--6-6--|
D|---------7-------7---------7-------7-7/9------6/7-7-77--5-5--7-7--|
A|----------------------------------------------4/5-5-55--5-5--7-7--|
E|----------------------------------------------x/x-x-xx--3-3--5-5--|
    Dm7      G    C    G       E/G#
e|-4/5-5-55--3-3--3-3--3-3-33--0-0-00--|
B|-5/6-6-66--3-3--5-5--3-3-33--0-0-00--|
G|-6/7-7-77--4-4--5-5--4-4-44--1-1-11--|
D|-6/7-7-77--5-5--5-5--5-5-55--0-0-00--|
A|-4/5-5-55--5-5--3-3--5-5-55--2-2-22--|
E|-x/x-x-xx--3-3--x-x--3-3-33--4-4-44--|

VERSE1
Am                                            F/A   G/B
Elle pense à moi, je le vois je le sens je le sais
Am                                              F/A   G/B
Et son sourire ne ment pas quand je vais la chercher
Dm7                  G              A          Dm7
Elle aime bien me parler des choses qu'elle a vues
                       G            C      G   E/G#
Du chemin qu'elle a fait et de tous ses proj---ets

VERSE2
Am                                                         F/A      G/B
Je crois pourtant qu'elle est seule et qu'elle voit d'autres hommes
Am                                                     F/A    G/B
Je ne sais pas ce qui veulent ni les choses qu'ils lui donne
Dm7                     G              A        Dm7
Je ne sais pas ou je suis quelque part dans sa vie
                      G                C       G   E/G#  E/G#
Si je compte aujourd'hui plus qu'un autre pour el---le

CHORUS
         Am                    Fmaj7/E          Dm7            G
Elle est si pres de moi pourtant je ne sais pas    comment l'aimer
           Em                    Am                  Fmaj7/E
Elle seule peut decider qu'on se parle d'amour ou d'amitié
                                  G6
Moi je l'aime et je peux lui offrir ma vie
        Em                     E/G#
Meme si elle ne veut pas de ma vie
     Am                    Fmaj7/E         Dm7             G
Je rêve de ses bras oui mais je ne sais pas    comment l'aimer
         Em                      Am                     Fmaj7/E
Elle a l'air d'hésiter entre une histoire d'amour ou d'amitié
                                    G6
Et je me sens comme une île en plein ocean              Fmaj7/E = 133210   
      Em                         E/G#                        G6 = 320030
On dirait que mon coeur est trop grand
                                            
e|-----------7-5---------------7-5------|
B|-----5-----------5-----5-----------5--|
G|---5---5-------5-----5---5-------5----|  play this before going
D|-7-------7---------7-------7----------|  into 3rd verse
A|--------------------------------------|
E|--------------------------------------|

VERSE3 (same pattern and chords as verse2)
Rien a lui dire elle sait bien que j'ai tout à donner
Rien qu'un sourire à l'attendre à vouloir la gagner
Mais qu'elles sont tristes les nuits le temps me parait long
Et je n'ai pas appris à me passer d elle

CHORUS (same as before)
Elle est si pres de moi pourtant je ne sais pas comment l'aimer
Elle seule peut decider qu'on se parle d'amour ou d'amitié
Moi je l'aime et je peux lui offrir ma vie
Meme si elle ne veut pas de ma vie
Je rêve de ses bras oui mais je ne sais pas comment l'aimer
Elle a l'air d'hésiter entre une histoire d'amour ou d'amitié
Et je me sens comme une île en plein ocean
On dirait que mon coeur est trop grand

OUTRO
   Am                                  F/A       G/B          
e|-----------7-5---------------7-5------------------------|
B|-----5-----------5-----5-----------5-----6-----------8--|
G|---5---5-------5-----5---5-------5-----5---5-------7----|
D|-7-------7---------7-------7---------7-------7-7/9------| repeat x4
A|--------------------------------------------------------|
E|--------------------------------------------------------|
   Am                                    
e|-----------7-5------------|
B|-----5-----------5--------|
G|---5---5-------5----------|
D|-7-------7---------7------|
A|--------------------------|
E|--------------------------|
                Elle est si pres de moi.

=====================================================================
Comment, rate, appreciate!
Добавлено: 22.05.2012
Другие материалы по этой песне:
  • Аккорды и текст

Страница создана 22.05.2012
http://primanota.ru/corneille/damour-ou-damitie-chords.htm
Привет, Гость.
Предлагаем пройти революционный курс по гитаре.
Подарок от PrimaNota.Ru, забирай!