PrimaNota.ru - самый крупный в мире бесплатный архив песенных текстов, аккордов, табулатур и нот


Corinthians - Hino Do Corinthians - таба, видео

Регистрация Запомнить меня
Войти через:  Facebook Google Twitter Vk Yandex Mail.ru

Corinthians - Hino Do Corinthians - таба, видео

Печатать
Просмотров: 95
-----------------------------------------------------------------------------
                             Hino do Corinthians - Corinthians
-----------------------------------------------------------------------------
Tabbed by: sasukeguitar
Email: saskenuba@gmail.com

Tuning: Standard

e|-13-12-----------------------12-10---------------------------------|
B|-------13-10-10--10-10-12-13-------13-12-12------------------------|
G|-------------------------------------------------------------------|
D|-------------------------------------------------------------------|
A|-------------------------------------------------------------------|
E|-------------------------------------------------------------------|

e|-10-----------------------10--------12---12--10-9------------------|
B|----12-10-9-9--9-9-10-12-----13-12---------------------------------|
G|-------------------------------------------------------------------|
D|-------------------------------------------------------------------|
A|-------------------------------------------------------------------|
E|-------------------------------------------------------------------|

e|-10--10---10-10-12-13-17-13----------15--12------------------------|
B|--------------------------15-13-13--------13-12-12-12-12-13-15-----|
G|-------------------------------------------------------------------|
D|-------------------------------------------------------------------|
A|-------------------------------------------------------------------|
E|-------------------------------------------------------------------|

e|-12-----------------------------------13-13-12-----------12--------|
B|----15-13-10~~--10-10-12-12-13-13-15-15----------15-13-15----------|
G|-------------------------------------------------------------------|
D|-------------------------------------------------------------------|
A|-------------------------------------------------------------------|
E|-------------------------------------------------------------------|

e|-------------------------13-13-12----------12---12-12-10-9-10-10---|
B|-10-10-12-12-13-13-15-15----------15-13-15-------------------------|
G|-------------------------------------------------------------------|
D|-------------------------------------------------------------------|
A|-------------------------------------------------------------------|
E|-------------------------------------------------------------------|

e|-8-7-8-8-17-13----------------------12-----------------------------|
B|---------------15-13-13-12-12-13-15----15-13-----------------------|
G|----------------------------------------------14--14~~-------------|
D|-------------------------------------------------------------------|
A|-------------------------------------------------------------------|
E|-------------------------------------------------------------------|

| /  slide up
| \  slide down
| h  hammer-on
| p  pull-off
| ~  vibrato
| +  harmonic
| x  Mute note
=============================================================================


Tá ai a tablatura pra toda a galera do timão!

Abraços
Добавлено: 01.07.2012
Другие материалы по этой песне:
  • Аккорды и текст

Страница создана 01.07.2012
http://primanota.ru/corinthians/hino-do-corinthians-chords.htm
Привет, Гость.
Предлагаем пройти революционный курс по гитаре.
Подарок от PrimaNota.Ru, забирай!