PrimaNota.ru - самый крупный в мире бесплатный архив песенных текстов, аккордов, табулатур и нот


Corinne Bailey Rae - Are You Here - таба, видео

Регистрация Запомнить меня
Войти через:  Facebook Google Twitter Vk Yandex Mail.ru

Corinne Bailey Rae - Are You Here - таба, видео

Печатать
Просмотров: 276
Are You Here
Corinne Bailey Rae
The Sea (2010)

Standard tuning, listen for timing.

Intro:

e|----------------|
b|----------------|
g|----------------|
d|-2--2-2-2-2-----| (x2)
a|-4--4-2-4-2-----|
E|------------0---|


Verse:

e|----------------|
b|----------------|
g|----------------|
d|-2--2-2-2-2-----| (x2)
a|-4--4-2-4-2-----|
E|------------0---|


e|------------4---------2----|
b|------------5--------------|
g|------------4-------2------|
d|-2--2-2-2-2-6-----4--------|
a|-4--4-2-4-2-4---2----------|
E|-------------------------0-|


e|----------------|
b|----------------|
g|----------------|
d|-2--2-2-2-2-----| (x2)
a|-4--4-2-4-2-----|
E|------------0---|


e|------------|
b|------------|
g|------------|
d|-2--2-2-2-2-|
a|-4--4-2-4-2-|
E|------------|


Pre-Chorus:

Just the chords, the strumming is pretty straightforward

e|-4--4--0--2-|
b|-5--4--2--2-|
g|-4--5--1--3-|
d|-6--4--2--2-|
a|-4--6--0--4-|
E|----4-----2-|


Chorus:

Again, just the chords

e|-------0-|
b|-9--8--5-|
g|-9--9--6-| (x2)
d|-9--9--7-|
a|-7--7--0-|
E|-0--0----|


Outro:

e|----------------|
b|----------------|
g|----------------|
d|-2--2-2-2-2-----| (x2)
a|-4--4-2-4-2-----|
E|------------0---|


e|------------4---------2----|
b|------------5--------------|
g|------------4-------2------|
d|-2--2-2-2-2-6-----4--------|
a|-4--4-2-4-2-4---2----------|
E|-------------------------0-|


Play order

Intro
Verse
Pre-Chorus
Intro
Verse
Pre-Chorus
Chorus
Intro (x2)
Pre-Chorus
Chorus
Outro
Добавлено: 23.02.2012
Другие материалы по этой песне:
  • Аккорды и текст

Страница создана 23.02.2012
http://primanota.ru/corinne-bailey-rae/are-you-here-chords.htm
Привет, Гость.
Предлагаем пройти революционный курс по гитаре.
Подарок от PrimaNota.Ru, забирай!