PrimaNota.ru - самый крупный в мире бесплатный архив песенных текстов, аккордов, табулатур и нот


Corinho - Gracioso - таба, видео

Регистрация Запомнить меня
Войти через:  Facebook Google Twitter Vk Yandex Mail.ru

Corinho - Gracioso - таба, видео

Печатать
Просмотров: 101
Уроки эстрадного вокала в Санкт-Петербурге
This is an awesome brazilin flamenco/classical song. I can't tell any more about it or Colinho because all
that existed on the internet was some hidden sheet music :/
I hope you like it :)

I didn't write the chords or fingerings, because I figured if you want to play it you'll figure it out, but 
tell me if you want some.

Play it pretty fast, about 3/4 a second per bar.

any pull-offs are optional, choose how to play it.

Tuning: Standard
Key: Am
Tempo:100bpm (time signature is 2/4 and each note is a sixteenth)

Section A
                            |8ths    |                          |8ths    |
e|-0---------------|-----------------|-3p0-----1p0-----|-0---------------|
B|---1-----3p0-----|-1---------------|-----2-------1---|---3---------3---|
G|-----2-------1---|---2---------2---|-------2-------2-|-----2-------2---|
D|-------2-------2-|-----2-------2---|-----------------|-0-----3-0-------|
A|-0---------------|-0-----3-0-------|-0---------------|-----------------|
E|---------0-------|-----------------|---------0-------|-----------------|
 
                                     |finish first time                  |
e|-5-----5---------|-0-----0---------|-----------------|-----------------|
B|---6-----6-------|---1-----1-------|-0-----0-1-0-----|---0-------------|
G|-----7-----7-----|-----2-----2-----|-----2-------3-2-|-1---1-----------|
D|-0-----------0-1-|-2---------------|---1-------------|-------3-2-0-----|
A|-----------------|-------------0-1-|-2---------------|-------------3-2-|
E|-----------------|-----------------|---------2-------|-0---------------|

 |second time        8th 8th 4th     |
e|-----------------|-----------------|
B|-0-----0------0-1|-----------------|
G|-----2----1-2----|-2---------------|
D|---1-------------|-----------------|
A|-2---------------|-0-------0-------|
E|----------0------|-----0-----------|

Section B

Key: GM

e|-------1-------1-|-----------------|-------0-------0-|----------0-3-1-0-|
B|-----0-------0---|-------0---------|---0-3-----0-3---|---1-3-4----------|
G|---0-------0-----|---0-2-----------|-----------------|------------------|
D|-----------------|-----------------|-----------------|------------------|
A|---------2-------|-3-------3-3-2-0-|-----------------|-1----------------|
E|-3---------------|-----------------|-4-------0-------|----------3-------|

                                                        8th 8th  4th  
e|---1-1-1---------|---0-0-0---------|---2-2-2---4-4-4-|-0-------0--------|
B|---3-3-3---3-3-3-|---1-1-1---1-1-1-|---0-0-0---3-3-3-|-1-------1--------|
G|-----------2-2-2-|-----------2-2-2-|-----------------|------------------|
D|-0---------------|-----------------|-1-------2-------|------------------|
A|---------2-------|-3-------0-------|-----------------|-0-------0--------|
E|-----------------|-----------------|-----------------|-----0------------|

Repeat section B, and finish with a bass and the first octave (2 on G) instead of the last 3 notes here.
I really didn't want to tab that out because this way it looks like a smile.


************************************

| []  Optional
| /   slide up
| \   slide down
| h   hammer-on
| p   pull-off
| ~   vibrato
| +   harmonic
| x   Mute note
| b   Bend
| pb  Pre-bend
| br  Bend release
| pbr Pre-bend release
| brb Bend release bend

************************************
Добавлено: 23.06.2016
Другие материалы по этой песне:
  • Аккорды и текст

Страница создана 23.06.2016
http://primanota.ru/corinho/gracioso-chords.htm
Привет, Гость.
Предлагаем пройти революционный курс по гитаре.
Подарок от PrimaNota.Ru, забирай!