PrimaNota.ru - самый крупный в мире бесплатный архив песенных текстов, аккордов, табулатур и нот


Corey Smith - Wheres The Love - текст песни, таба, видео

Регистрация Запомнить меня
Войти через:  Facebook Google Twitter Vk Yandex Mail.ru

Corey Smith - Wheres The Love - текст песни, таба, видео

Печатать
Просмотров: 185
-------------------------------------------------------------------------------
                             Where's the Love - Corey Smith
-------------------------------------------------------------------------------
Tabbed by: Thom
Email: thompowers3@yahoo.com

Tuning: Standard

This song has two guitars in it.  This is a good way to play it solo.  

Intro/Verse
e|---------------------------------------------------------------------------|
B|---------------------------------------------------------------------------|
G|------6-X-9-X---4--8--6---6h7--9---6-X-9-X---4--8--6-----------------------|
D|------6-X-9-X---4--8--6------------6-X-9-X---4--8--6----REPEAT-X3----------|
A|------4-X-7-X---2--6--4------------4-X-7-X---2--6--4-----------------------|
E|---------------------------------------------------------------------------|

Pre-Chorus
e|----------||---------------------------------------------------------------|
B|----------||---------------------------------------------------------------|
G|----------||---------------------------------------------------------------|
D|----------||--6-X-9--------9----4--8--6--------6---------------------------|
A|------6/0-||--4-X-7-----7-------2--6--4-----4------------REPEAT X2---------|
E|----------||---------------------------------------------------------------|

Chorus
e|---------------------------------------------------------------------------|
B|---------------------------------------------------------------------------|
G|---------------------------------------------------------------------------|
D|----6-X-6--X--6-X-6--X--6-X-9------9----4--8--6-----6----6-X-6---6-Hold----|
A|----4-X-4--X--4-X-4--X--4-X-7---7-------2--6--4---4------4-X-4---4-Last----|
E|-------------------------------------------------------------------Note----|
After the Chorus Start Over With the Verse...

Verse 3 Times With Pre-Chorus and Chorus following.

It's Not Perfect But It's Close...Sounds Great Played Solo.


| /  slide up
| \  slide down
| h  hammer-on
| p  pull-off
| ~  vibrato
| +  harmonic
| x  Mute note
===============================================================================
Добавлено: 25.03.2012
Другие материалы по этой песне:
  • Аккорды и текст

Страница создана 25.03.2012
http://primanota.ru/corey-smith/wheres-the-love-chords.htm
Привет, Гость.
Предлагаем пройти революционный курс по гитаре.
Подарок от PrimaNota.Ru, забирай!