PrimaNota.ru - самый крупный в мире бесплатный архив песенных текстов, аккордов, табулатур и нот


Corey Smith - Twenty One - текст песни, таба, видео

Регистрация Запомнить меня
Войти через:  Facebook Google Twitter Vk Yandex Mail.ru

Corey Smith - Twenty One - текст песни, таба, видео

Печатать
Просмотров: 159
TWENTY ONE
-acoustic guitar
-Capo=2nd fret

Intro

E-----0h2p0----0-------2-----------------------------3---------------0-------------------|
B--------------------3-------3-----3--2------0-----------0-------0h3---------2-3---------|
G-------------------------------------------------0--------------------------------------|
D---0------------------------------------------------------------------------------------|
A---------------4-------2--------0-------------------------------------------0-----------|
E--------------------------------------------3---------2---------0-----------------------|


E-----0h2p0-----0---------2---------------------------------------------------------|
B---------------------3---------3------3--2-----0-----------------------2h3---------|
G----------------------------------------------------0---------0--------2-----------|
D---0--------------------------------------------------------0--------2-------------|
A----------------4--------2---------0-------------------0h2-------0-----------------|
E-----------------------------------------------3-----------------------------------|

Verse

E--------------------------------|
B-------3------------------------|
G-----2--------0------0------0---|
D---0--------0------0------0-----| repeat til Chorus
A----------4------2------0-------|
E--------------------------------|

Chorus
"I was breakin' hearts..."

E-----------------------------------0h2---------------|
B------------------------------------3----------2-----|
G-------0------0------0------0----------------0-------|
D-----0------0------0------0------0-------------------|
A--------------------------0---------------0----------|
E---3------2------0-------------------------3---------|

"Stealin' kisses, wishin' I was twenty one"

E-----------------------------------|
B-----------------------------------|
G-------0------0------0------0------|
D-----0------0------0------0--------|   Play second line of intro
A--------------------------0--------|
E---3------2------0-----------------|

Bridge
"The youngest one of all my friends..."

E----------------------------------3p2-------------------------------------------------|
B---------------------3---3---3----3---------------------------------------2h3-2----2--|
G--------2-----------2---2---2----2-----------2------------5---5-------2-----------2---|
D---4---2---5---4---x---x---0----0------4---2---5---4---5---5-----2-------------2------|
A---4---0---5---4---2---4----------------4---0---5---4---3---3---0---------------0-----|
E---2-------3---2-----------------------0-2--------3---2-------------------------------|


-Play Chorus Once through
-Play entire intro with A-chord tagged on at the end
-Verse 3


Final Chorus
"Then I look at all those college girls..."

E-----------------------------------0h2--------------|
B------------------------------------3----------2----|
G-------0------0------0------0----------------0------|
D-----0------0------0------0------0------------------|
A--------------------------0--------------0----------|
E---3------2------0------------------------3---------|

"I just check 'em out, and say "damn..."
E--------------------3----------------|
B--------------------3------2---------|
G-------0------0----x------2----------|
D-----0------0------2------2----------|
A---------------------2------0--------|
E---3------2---------0----------------|

Outro

E-----0h2p0-----0---------2-------------------------------------------|
B---------------------3---------3-----3--2-------------2h3----3-------|
G---------------------------------------------------0-----2------2----|
D---0--------------------------------------------0-------2------0-----|
A----------------4---------2--------0--------------------0------0-----|
E-----------------------------------------------3---------------------|
Добавлено: 10.05.2012
Другие материалы по этой песне:
  • Аккорды и текст

Страница создана 12.03.2012
http://primanota.ru/corey-smith/twenty-one-chords.htm
Привет, Гость.
Предлагаем пройти революционный курс по гитаре.
Подарок от PrimaNota.Ru, забирай!