PrimaNota.ru - самый крупный в мире бесплатный архив песенных текстов, аккордов, табулатур и нот


Corey Smith - Sweet Little Boy - таба, видео

Регистрация Запомнить меня
Войти через:  Facebook Google Twitter Vk Yandex Mail.ru

Corey Smith - Sweet Little Boy - таба, видео

Печатать
Просмотров: 139
Capo 2nd fret-notes are relative to capo

Intro
e-----0--0--0--------------------------|
b------0--0--0-------------------------|
g-------2--1--1h2----------------------|
d--------------------------------------|
a---0----------------------------------|
E--------------------------------------|

Verse and Chorus
                              A (Palm Mute)
e-----0--0--0-----  ---------0------------|
b------0--0--0----  ---------0------------|
g-------2--1--1h2-x2---------2------------|
d-----------------  ---------2------------|
a---0-------------  ---------0------------|
E-----------------  ---------x------------|
Добавлено: 13.05.2012
Другие материалы по этой песне:
  • Аккорды и текст

Страница создана 13.05.2012
http://primanota.ru/corey-smith/sweet-little-boy-chords.htm
Привет, Гость.
Предлагаем пройти революционный курс по гитаре.
Подарок от PrimaNota.Ru, забирай!