PrimaNota.ru - самый крупный в мире бесплатный архив песенных текстов, аккордов, табулатур и нот


Corey Smith - Long Way To Go - текст песни, таба, видео

Регистрация Запомнить меня
Войти через:  Facebook Google Twitter Vk Yandex Mail.ru

Corey Smith - Long Way To Go - текст песни, таба, видео

Печатать
Просмотров: 161
-------------------------------------------------------------------------------
                      Long Way to Go - Corey Smith
-------------------------------------------------------------------------------
Tabbed by: Jayrod

Tuning: Capo 2, standard

This is the hidden track version from the Undertones album (which is better in my 
Sounds best if played without a pick.

Intro & Verses
e|----------0h2p0-----------------0h2p0---------------------3--------------------------0--|
B|---------------------3-----------------------3--------------------------------0h3-------|
G|----------------------------------------------------------------------------------------|
D|----0-----------------------------------------------------------------------------------|
A|--------------------------------------------------------------------0h2-----------------|
E|---------------------------2--------------------------3---------------------------------|

Prechorus: Strum G chord when you get to it in the verse

Chorus
e|------2-------------3-------------|
B|-----3------2------3--------------|
G|-----2------2------0--------------|
D|-----0------2------0--------------|
A|------------0------x--------------|
E|--------------------3-------------|

Post-2nd Chorus: "A long way to go"
e|--------3-------------------|
B|-------3------2-------------|
G|-------0------2-------------|
D|-------2------2-------------|
A|-------2------0-------------|
E|-------0--------------------|


| h  hammer-on
| p  pull-off
| x  Mute note
===============================================================================
Добавлено: 29.03.2012
Другие материалы по этой песне:
  • Аккорды и текст

Страница создана 02.03.2012
http://primanota.ru/corey-smith/long-way-to-go-chords.htm
Привет, Гость.
Предлагаем пройти революционный курс по гитаре.
Подарок от PrimaNota.Ru, забирай!