PrimaNota.ru - самый крупный в мире бесплатный архив песенных текстов, аккордов, табулатур и нот


Corey Smith - A Better Place - текст песни, таба, видео

Регистрация Запомнить меня
Войти через:  Facebook Google Twitter Vk Yandex Mail.ru

Corey Smith - A Better Place - текст песни, таба, видео

Печатать
Просмотров: 138
-------------------------------------------------------------------------------
                             A BETTER PLACE - Corey Smith
-------------------------------------------------------------------------------
Tabbed by: Jayrod

Tuning: standard

Intro
E-------------------------------------------------------------------------------------|
B---2h3p2--0--2--0--------------------------------------------------------------------|
G-------------------2-----2---------------4------2------2-----------------------------|
D----------------------4-----4--2--------------------------------2--------------------|
A----------------------------------4-----------------0------2h4-----4p2--0--0h2p0-----|
E--------------------------------------2------4---------------------------------------|

Verses
E--------------------------------------------------|
B------------------------(2)-(2)-----(2)-(2)-------|
G------4-----------2------2---2-------2---2--------|
D-------------------------2-----------2------------|
A-------------------------0-------0---0------------|
E---2------2---4------4----------------------4-----|

Prechorus
E---0---0---0---0---0----0----0-----|
B---0---0---0---0---0---0h2---0-----|
G---x---x---2---2---2----2----2-----|
D---4---6---2---2---2----2----2-----|
A---4---6---0---0---0----0----0-----|
E---2---4---------------------------|

Chorus
E---5---5---7-----5---5---7---5-----5---5---7----5---5---7-----|
B---x---x---x-----x---x---x---x-----x---x---x----x---x---x-----|
G---7---x---9-----7---x---9---x-----7---x---9----7---x---9-----|
D---7---7---9-----7---7---9---7-----7---7---9----7---7---9-----|
A---5---7---7-----5---7---7---7-----5---7---7----5---7---7-----|
E-------5-------------5-------5---------5------------5---------|
-in the last chorus, play an E chord for the last chord ^^^

Post-Chorus (2nd & 3rd)
E--------------------------------------------0-----|
B--------------------------------------------0-----|
G---------------------------6--------8---6---1-----|
D---4---2---4---2---4---6---7---x2---9---7---2-----|
A---4---2---4---2---4---6---7--------9---7---2-----|
E---2---0---2---0---2---4---5--------7---5---0-----|

Ending (Oh a better place...)
E-----------0---0---0-------------------------0-----|
B-----------0---0---0-------------------------0-----|
G---8---6---1---x---1---8---6-----6-----------1-----|
D---9---7---2---4---2---9---7-----7---6---4---2-----|
A---9---7---2---4---2---9---7-----7---6---4---2-----|
E---7---5---0---2---0---7---5-----5---4---2---0-----|
Добавлено: 11.07.2012
Другие материалы по этой песне:
  • Аккорды и текст

Страница создана 27.06.2012
http://primanota.ru/corey-smith/a-better-place-chords.htm
Привет, Гость.
Предлагаем пройти революционный курс по гитаре.
Подарок от PrimaNota.Ru, забирай!