PrimaNota.ru - самый крупный в мире бесплатный архив песенных текстов, аккордов, табулатур и нот


Corey Crowder - Small Town - текст песни, таба, видео

Регистрация Запомнить меня
Войти через:  Facebook Google Twitter Vk Yandex Mail.ru

Corey Crowder - Small Town - текст песни, таба, видео

Печатать
Просмотров: 170
Intro

e---3--3--3--|
b---3--3--3--|
g---0--0--0--|
d---0--3--2--|
A---2--0--3--|
E---3--0--0--|

Verse

e---3--3--3--3--|
b---3--3--3--3--|
g---0--0--0--2--|
d---0--3--2-----|
A---2--0--3-----|
E---3--0--0-----|

Chorus

e---3--3--0--0--|
b---3--3--3--3--|
g---0--0--5--0--|
d---0--2--5--4--|
A---2--3--0--5--|
E---3--0--5--0--|

Bridge

e---3--3--0--0--|
b---3--3--0--3--|
g---0--0--0--0--|
d---2--0--2--4--|
A---3--2--3--5--|
E---0--3--0--0--|
Добавлено: 28.06.2012
Другие материалы по этой песне:
  • Аккорды и текст

Страница создана 11.06.2012
http://primanota.ru/corey-crowder/small-town-chords.htm
Привет, Гость.
Предлагаем пройти революционный курс по гитаре.
Подарок от PrimaNota.Ru, забирай!