PrimaNota.ru - самый крупный в мире бесплатный архив песенных текстов, аккордов, табулатур и нот


Corenix - The Ground - таба, видео

Регистрация Запомнить меня
Войти через:  Facebook Google Twitter Vk Yandex Mail.ru

Corenix - The Ground - таба, видео

Печатать
Просмотров: 77
Title: The Groung
Artist: CoreNix
Lyrics: Johan Persson
Music: Johan Persson, Martin Berg
Date: Released May 2001

E: [022100]
A: [x02220]
B: [x24422]

* Intro

[E, A] repeat with feeling

* Verse 1

[E A] x 3 [B E A E A]
A leaf falls down from a tree...

* Verse 2

* Chorus

[E B A] x 3
Go follow your will, follow the path...

[B E A E A E]
that you didn't dar to take

* Verse 3

* Chorus

Solo

Chorus x 2 (1st time accapella)

* Verse 3

E A E
There was a leaf on the ground...


* Solo:

Gt 1:
|-------------------|-------------------------------9-12-11-|
|-------------------|------------------------9----9---------|
|----8b9r8--8-----6-|-(6)-------------8-9-11---11-----------|
|-------------9-6---|-----9-7--7-9-11-----------------------|
|-------------------|---------------------------------------|
|-0-----------------|---------------------------------------|

|-12---11b12r11-11------9--|-(9)-----------------------------|
|------------------12-9----|-----12-10--10-9-10-9------9-----|
|--------------------------|----------------------11-9---9-9-|
|--------------------------|---------------------------------|
|--------------------------|---------------------------------|
|--------------------------|---------------------------------|

|------11b12r11--11-14----9-|-(9)-------------------|
|----------------------12---|-----12-10----9-10-12--|
|-(9)-----------------------|-----------------------|
|---------------------------|-----------------------|
|---------------------------|-----------------------|
|---------------------------|-----------------------|

|-------------------------------------------------12-14-16-|
|-12b13r12-12----------12-14-12----------------12----------|
|-------------------14----------14----------14-------------|
|----------------14----------------14----14----------------|
|-------------12----------------------12-------------------|
|----------------------------------------------------------|

|-16b17r16--16-14--12-11-|-12--*|
|------------------------|-----*|
|------------------------|-----*|
|------------------------|-----*|
|------------------------|-----*|
|------------------------|-----*|

Gt 2:
|------------------------|---------------------------------------12-16-14|
|-----------------------|-----------------------------12-14-16--------|
|----11b13r11-11------9-|-(9)----------------11-13-14-----------------|
|----------------13-9---|-----13-11-11-13-14--------------------------|
|-----------------------|---------------------------------------------|
|-0---------------------|---------------------------------------------|


|-12---14b16r14-14-------12--|-(12)---------------------------------|
|------------------16-12-----|------16-14--14-12-14-12--------------|
|----------------------------|-------------------------14-13-14-13--|
|----------------------------|--------------------------------------|
|----------------------------|--------------------------------------|
|----------------------------|--------------------------------------|

|-------14b16r14--14-------12-|-(12)--------------------|
|--------------------16-12----|------16-14----12-14-16--|
|-(13)------------------------|-------------------------|
|-----------------------------|-------------------------|
|-----------------------------|-------------------------|
|-----------------------------|-------------------------|

|---------------------------------|------------------------|-----*|
|-16b17r16-16-16b17---------------|-16b17r16--16-14--12----|-----*|
|---------------------------------|---------------------14-|-13--*|
|---------------------------------|------------------------|-----*|
|---------------------------------|------------------------|-----*|
|---------------------------------|------------------------|-----*|


     
Добавлено: 29.10.2013
Другие материалы по этой песне:
  • Аккорды и текст

Страница создана 29.10.2013
http://primanota.ru/corenix/the-ground-chords.htm
Привет, Гость.
Предлагаем пройти революционный курс по гитаре.
Подарок от PrimaNota.Ru, забирай!