PrimaNota.ru - самый крупный в мире бесплатный архив песенных текстов, аккордов, табулатур и нот


Corbeau - Illegal - бас-таба, видео

Регистрация Запомнить меня
Войти через:  Facebook Google Twitter Vk Yandex Mail.ru

Corbeau - Illegal - бас-таба, видео

Печатать
Просмотров: 129
Title: 	Illégal		
Artist: Corbeau
Album: L'intégral
Tabber: Steph
Email: cyberbassist@hotmail.com


Intro:
                                                                       x2
G|----------------------------------------------------------------------|
D|----------------------------------------------------------------------|
A|---7------7------7----------------------------------------------------|
E|-7------7----------9-7-9---------7777777------------------------------|


Verse:

G|----------------------------------------------------------------------|
D|----------------------------------------------------------------------|
A|---7----7----7------4-----4---4---4---4---4---4-----2----2---2---2----|
E|-7----7----7------------4---4---4---4---4---4----------2---2---2------|


Chorus
                                                                      X2
G|----------------------------------------------------------------------|
D|----------------------------------------------------------------------|
A|-------------77-7--77-------------------------------------------------|
E|--55-5--55-------------77-7--77---77-7--77----------------------------|


Verse:
Chorus Variation: 1:16

G|----------------------------------------------------------------------|
D|---------------------------------7------------------------------------|
A|-----------77-7--77----------------9---------77-7-77------------------|
E|-55-5--505---------077-7--77--77-----055-5-55--------77-7-77--77-7-77-|


Solo:

G|----------------------------------------------------------------------|
D|-*--------------------------------------------------------------------|
A|-*------------4444----7777---------------------------4----------------|
E|--55555555------------------77777777---77777777-----------------------|


G|----------------------------------------------------------------------|
D|---------------------------------------------------------------------*|
A|-4-----------7777----4444--------------------------------------------*|
E|--55555555------------------77777777---77777777-----------------------|


End:

G|--------|
D|--------|
A|--7-----|
E|---9-7--|

Any comments, corrections, please email me
Добавлено: 19.04.2012
Вам также может быть интересно:
Другие материалы по этой песне:
  • Аккорды и текст

Страница создана 19.04.2012
http://primanota.ru/corbeau/illegal-chords.htm
Привет, Гость.
Предлагаем пройти революционный курс по гитаре.
Подарок от PrimaNota.Ru, забирай!