PrimaNota.ru - самый крупный в мире бесплатный архив песенных текстов, аккордов, табулатур и нот


Corb Lund Band - Run This Town - аккорды и текст, видео

Регистрация Запомнить меня
Войти через:  Facebook Google Twitter Vk Yandex Mail.ru

Corb Lund Band - Run This Town - аккорды и текст, видео

Печатать
Просмотров: 70
Run This Town
Corb Lund Band
Song: Run This Town
Band: Corb Lund & the Hurtin' Albertans
Album: Things That Can't Be Undone
Label: New West
Tabbed By: ultimatelefty

The second song off of this great album, and my second tab from this album, enjoy!

When listening to the song, you've probably noticed that Corb does a few D Dsus2 D Dsus4 D Dsus2 D strums
in the parts where I have just put D. Feel free to add those at your own leisure when playing the song!

Capo II

D                              Em
You and me together could have run this town
G                             D
Together you and I could have owned this place
                      G              D
If I'd a sped up, and you'd a slowed down
Em                             G        D
You and me together could have run this town

D G D Em G D

While ^these chords are playing, this part is played on lead:
e|----------------------------------------------|
B|----------------------------------------------|
G|-----2-2--2-----0-----------------------------|
D|-2h4--------2h4---4---2--2h4-2p0---------0-0--|
A|---------------------------------2p0-0h2------|
E|----------------------------------------------|

    A                        G                 D
You blink for a second and a lot of things disappear
             A                         G                      D
I guess I'll add it to the list of the other things lost last year
         G                                         D
Yeah you blink for a second things up and just disappear
                                A                  D
And it's a pretty long list but I'm still standing here

D                              Em
You and me together could have run this town
G                             D
Together you and I could have owned this place
                      G              D
If I'd a sped up, and you'd a slowed down
Em                             G        D
You and me together could have run this town

D G D Em G D

While ^these chords are playing, this part is played on lead:
e|----------------------------------------------|
B|----------------------------------------------|
G|-----2-2--2-----0-----------------------------|
D|-2h4--------2h4---4---2--2h4-2p0---------0-0--|
A|---------------------------------2p0-0h2------|
E|----------------------------------------------|

    A                            G                    D
The novel that I'm reading has a character a lot like you
       A                         G                     D
And it took a little while but I recognized things you do
         G                                                 D
Yeah the novel that I'm reading has a character a lot like yours
                                   A                     D
I put it back on the shelf, took a drink and closed the drawer

D                              Em
You and me together could have run this town
G                             D
Together you and I could have owned this place
                      G              D
If I'd a sped up, and you'd a slowed down
Em                             G        D
You and me together could have run this town

  D                                                  Em       G  

e|---------------------------------------------------------------------|
B|---------------------------------------------------------------------|
G|-----------------------------------2--------------------0-----0------|
D|-4---0-2-4-2-0-------0-2-4-2-0-2-4---4---0-2-4-2-0---2----2------0---|
A|---------------2-0---------------------------------3--------2------2-|
E|---------------------------------------------------------------------|

D                              Em
You and me together could have run this town
G                             D
Together you and I could have owned this place
                      G              D
If I'd a sped up, and you'd a slowed down
Em                             G        D
You and me together could have run this town


                       Em                             G        D
                  Yeah You and me together could have run this town
e|---------------------------------------------------------------|
B|---------------------------------------------------------------|
G|-----2-2--2-----0----------------------------------------------|
D|-2h4--------2h4---4---2------2h4----2p0---------------0-----0--|
A|----------------------------------------2p0------0h2-----------|
E|---------------------------------------------------------------|



Добавлено: 15.04.2016
Другие материалы по этой песне:
  • Аккорды и текст

Страница создана 15.04.2016
http://primanota.ru/corb-lund-band/run-this-town-chords.htm
Привет, Гость.
Предлагаем пройти революционный курс по гитаре.
Подарок от PrimaNota.Ru, забирай!