PrimaNota.ru - самый крупный в мире бесплатный архив песенных текстов, аккордов, табулатур и нот


Corb Lund Band - All I Wanna Do Is Play Cards - таба, видео

Регистрация Запомнить меня
Войти через:  Facebook Google Twitter Vk Yandex Mail.ru

Corb Lund Band - All I Wanna Do Is Play Cards - таба, видео

Печатать
Просмотров: 84
ALL I WANNA DO IS PLAY CARDS - CORB LUND
Tabbed By Barry Miles

Intro (heavy palm mute):
  E              x5 D                 C                 B
e|-----------------|-----------------|-----------------|---------|
B|-----------------|-----------------|-----------------|---------|
G|-----------------|-----------------|-----------------|---------|
D|-----------------|---7---7---7---7-|---5---5---5---5-|---4---4-|
A|---7---7---7---7-|-5---5---5---5---|-3---3---3---3---|-2---2---|
E|-0---0---0---0---|-----------------|-----------------|---------|

        E
Well, I guess I really oughta be makin up songs but all I wanna do is play cards.

I know it's dumb and sick and wrong but all I wanna do is play cards.

Got the studio booked in tennessee 
       D
and my record producer's callin me 
    C                                      B
The tape will roll in just three weeks and all I wanna do is play cards.

Main riff:
e|--------------------|--------------------|
B|--------------------|--------------------|
G|--------------------|--------------------|
D|--------------------|--------------------|
A|----7--5--9--5--5h7-|----7--5--9--5--7---|
E|-0------------------|-0------------------|

Verse:
e|---------------------------------|---------------------------------|
B|---------------------------------|---------------------------------|
G|---------------------------------|---------------------------------|
D|---------------------------7--8--|---------------------------0--0--|
A|---7---7---7---7---7---7---5--6--|---7---7---7---7---7---7---x--x--|
E|-0---0---0---0---0---0---0-------|-0---0---0---0---0---0---0-3--2--|

They wanna book the band for a rodeo dance and all I wanna do is play cards.
The contract claims they got five grand but all I wanna do is play cards. 

e|-----------------|-----0--------|------------|--------|
B|-----------------|-----3--------|---1--------|-4------|
G|-----------------|---2----------|---0--------|-4------|
D|-----------------|-0------------|------------|-4------|
A|---7---7---7---7-|--------------|-3----------|-2------|
E|-0---0---0---0---|--------------|------------|--------|

My agent says we oughta take the show 
but tell you the truth I don't wanna go 
cuz there's this real good game of split hi-lo and all I wanna do is play cards.

Prechorus riff:
e|--------------------|--------------------|
B|--------------------|--------------------|
G|--------------------|--------------------|
D|--------------------|--------------------|
A|----7--5--9--5--5h7-|----7--9--10--11-12-|
E|-0------------------|-0------------------|

Chorus: (with I-V bass line)
A                                                        (G)
Crib and guts and stook and gin and stud and cowboy pitch 
A
Blackjack, eight or better, hold em and draw, chase the bitch 
B
Acey deucy, never loosey, hearts and black mariah 
C                               D
Smear and low chicago, man, the stakes keep gettin higher 

Main riff followed by:
e|--------------------|--------------------|
B|--------------------|--------------------|
G|--------------------|--------------------|
D|--------------------|--------------------|
A|----7--5--9--5--5h7-|----7--5------------|
E|-0------------------|-0--------7---5---3-|

Verse:
I could skate for free in the hockey league but all I wanna do is play cards. 
Tattooed young dark haired girls call me and all I wanna do is play cards.
There's famous people'd like to write with me 
And the beer at the black dog's usually free 
The whole damn world's an oyster to me and all I wanna do is play cards.

Main Riff

Verse:
We're on the radio in el paso and all I wanna do is play cards.
Finally got a little bit of press in t.o. and all I wanna do is play cards.
They're buying the records out in amsterdam 
There's rock tours booked in far off lands 
but i'm feelin kinda gambley and all I wanna do is play cards.

Chorus

Solo:        A
e|----------|--5-----5-----------5-----5-----------|--5-----5-----------5-----5-----5---------|
B|----------|-----8-----------------8-------x--0---|-----8-----------------8------------------|
G|----------|-----------7br-5---------------x--0---|-----------7br-5------------5h6----6h7h8--|
D|----------|-----------------7-------------x--0---|-----------------7------------------------|
A|-----3b-0-|----------------------------------x---|------------------------------------------|
E|-0-3------|----------------------------------3---|------------------------------------------|

  B                                                 |
e|-10b--7----------7----7----10b--7---------7-----7-|
B|---------10b-------10-------------10b--------10---|
G|--------------7h8----------------------7h8--------|
D|--------------------------------------------------|
A|--------------------------------------------------|
E|--------------------------------------------------|

 C 
|-----12----12----12-12----12-------------------------------|
|-/11----11----11-------11-----5b-5b--5b-5b-5b-5br-3h0--3b5-|
|-----------------------------------------------------------|
|-----------------------------------------------------------|
|-----------------------------------------------------------|
|-----------------------------------------------------------|


Main riff followed by:
e|--------------------|--------------------|
B|--------------------|--------------------|
G|--------------------|--------------------|
D|--------------------|--------------------|
A|----7--5--9--5--5h7-|----7--5------------|
E|-0------------------|-0--------7---5---3-|

Verse:
I don't see much of my friends these days cuz all I wanna do is play cards.
Except whitey and gravy, they like a game and all I wanna do is play cards.
My neighbor Brent says I got a problem 
But he don't know cuz nobody taught him 
To bet the best when you know you got ‘em and all I wanna do is play cards.

Chorus

Contract bridge and spades and whist and kings and little ones 
Canasta, hearts and spite and malice, kings make little ones 
Whores and fours and one-eyed bores, house rules that ain't acknowledged 
And them games you learned at vet school And at agricultural college 

Chinese rummy, greek manila, omaha, dutch chase 
Start em when they're young with fish and war and crazy eights 
Twenty one and thirty one and seven twenty seven 
Well if i don't play for money, hon, will i still get to heaven 
Добавлено: 29.07.2013
Другие материалы по этой песне:
  • Аккорды и текст

Страница создана 29.07.2013
http://primanota.ru/corb-lund-band/all-i-wanna-do-is-play-cards-chords.htm
Привет, Гость.
Предлагаем пройти революционный курс по гитаре.
Подарок от PrimaNota.Ru, забирай!