PrimaNota.ru - самый крупный в мире бесплатный архив песенных текстов, аккордов, табулатур и нот


Coralie Clement - Gloria - аккорды и текст, видео

Регистрация Запомнить меня
Войти через:  Facebook Google Twitter Vk Yandex Mail.ru

Coralie Clement - Gloria - аккорды и текст, видео

Печатать
Просмотров: 45
Gloria
Coralie Clement
Coralie Clément "Gloria"

     D   A/D  Gm6   A#   C9
e:---2----2----0----0----0----|
B:---3----3----3----3----3----|
G:---0----0----0----0----0----|
D:---0----x----x----x----x----|
A:--------0----x----1----3----|
E:-------------3--------------|

Example of picking variations
   D                             A/D
e:-------2-------------2-------:-------2-------------2-------:    
B:-----3-----3-------3-----3---:-----3-----3-------3-----2---:     
G:---0-----0---0---0-----0---0-:---0-----0---0---0-----0---0-:     
D:-0-------------0-------------:-----------------------------:
A:-----------------------------:-0-------------0-------------:
E:-----------------------------:-----------------------------:

D                  A/D
J'appelle encore sans grand espoir.
D                  A/D
Tu fais le mort, quel genre de gloire en retires-tu  
      Gm6               A#              C9
Quand tu me tues, quand tu me tues quand tu me tues ?

D                  A/D

D                  A/D
J'appelle encore, j'ai bu, je l'avoue
D                  A/D
Un peu de liqueur sans le moindre goût.
              Gm6         A#  C9
M'en voudrais-tu si je te tue, si je le fais ?
D                 Gm6               A#
J'attendrais que tu dormes depuis longtemps
D                 Gm6               A#
Que les feuilles de l'orme soient en or blanc
D                 Gm6               A#
Pour ce retour de flamme, de chair, de sang.

D                  A/D
D                  A/D
D                  A/D
D                  A/D
Gloria...
Добавлено: 26.05.2016
Другие материалы по этой песне:
  • Аккорды и текст

Страница создана 26.05.2016
http://primanota.ru/coralie-clement/gloria-chords.htm
Привет, Гость.
Предлагаем пройти революционный курс по гитаре.
Подарок от PrimaNota.Ru, забирай!