PrimaNota.ru - самый крупный в мире бесплатный архив песенных текстов, аккордов, табулатур и нот


Copeland - World Turn - таба, видео

Регистрация Запомнить меня
Войти через:  Facebook Google Twitter Vk Yandex Mail.ru

Copeland - World Turn - таба, видео

Печатать
Просмотров: 47
Уроки эстрадного вокала в Санкт-Петербурге
Artist: Copeland
Song: World Turn
Album: Ixora
Tabbed By: Matthew Florio
Email: shempashland@yahoo.com


e|------------------------------------------|
B|------------------------------------------|
G|----2~-2---6~-6----2~-2---6~-6------------|
D|----0~-0---0~-0----0~-0---0~-0------------|
A|------------------------------------------|
E|---3---3--7---7---3---3--7---7------------|
"In the back of your mind..."

Pre Chorus
e|-------------------------------------------|
B|-------------------------------------------|
G|----6--7--2---6--7--2--11-11--11--11--2-2--|
D|----0--0--0---0--0--0---0---0---0---0-0-0--|
A|-------------------------------------------|
E|---5---7--3--5---7--3--10----10--10---2-3--|
"and the waves will just keep crashing on your back..."

Chorus
e|-------------------------------------------|
B|-------------------------------------------|
G|---7-7--2-4--7-7--2-4----------------------|
D|---0-0--0-0--0-0--0-0----------------------|
A|-------------------------------------------|
E|---7----2-3--7----2-3----------------------|
"and you felt the world turn..."

When the Sax comes in play this
e|-------------------------------------------|
B|-------------------------------------------|
G|---6-6-6~--2-2-2~--6-6-6~--2-2-2~----------|
D|---0-0-0~--0-0-0~--0-0-0~--0-0-0~----------|
A|-------------------------------------------|
E|---7-7-7~--3-3-3~--7-7-7~--3-3-3~----------|

Pre Chorus
e|-------------------------------------------|
B|-------------------------------------------|
G|----6--7--2---6--7--2--11-11--11--11--2-2--|
D|----0--0--0---0--0--0---0---0---0---0-0-0--|
A|-------------------------------------------|
E|---5---7--3--5---7--3--10----10--10---2-3--|
"and the waves will just keep crashing on your back..."

Chorus
e|-------------------------------------------|
B|-------------------------------------------|
G|---7-7--2-4--7-7--2-4----------------------|
D|---0-0--0-0--0-0--0-0----------------------|
A|-------------------------------------------|
E|---7----2-3--7----2-3----------------------|
"and you felt the world turn..."

Lead 1
This guitar part has a delay on it that repeats each note so each sounds as notes.
Basically think single notes (1 - 2 - 3 - 4)
The 2 - 3 - 4 are the repeat notes from the delay.
e|-------------------------------------------|
B|-------------------------------------------|
G|---9----11----12----9----11----12----------|
D|-------------------------------------------|
A|-------------------------------------------|
E|-------------------------------------------|

Lead 2
Comes in half way
e|-----------------------------------------------------------|
B|------7~---12-10~---7~---12-------7~---12-10~---7~---------|
G|----------------------------12------------------------9~---|
D|---5/7--7/9------5/7--7/9------5/7--7/9------5/7--7/9------|
A|-----------------------------------------------------------|
E|-----------------------------------------------------------|
************************************

| /   slide up
| \   slide down
| h   hammer-on
| p   pull-off
| ~   vibrato
| +   harmonic
| x   Mute note
| b   Bend
| pb  Pre-bend
| br  Bend release
| pbr Pre-bend release
| brb Bend release bend
Добавлено: 31.05.2016
Другие материалы по этой песне:
  • Аккорды и текст

Страница создана 31.05.2016
http://primanota.ru/copeland/world-turn-chords.htm
Привет, Гость.
Предлагаем пройти революционный курс по гитаре.
Подарок от PrimaNota.Ru, забирай!