PrimaNota.ru - самый крупный в мире бесплатный архив песенных текстов, аккордов, табулатур и нот


Copeland - There Cannot Be A Close Second - текст песни, таба, видео

Регистрация Запомнить меня
Войти через:  Facebook Google Twitter Vk Yandex Mail.ru

Copeland - There Cannot Be A Close Second - текст песни, таба, видео

Печатать
Просмотров: 94
-------------------------------------------------------------------------------
                             There Cannot Be a Close Second - Copeland
-------------------------------------------------------------------------------
Tabbed by: Jordan
Email: jordanlontine@hotmail.com

Tuning:Standard

Well i was looking for this tab all over the net and couldn't find it so i decided to
give it a shot.  I think most of this is right but there are little parts that i haven't
picked up yet.  The lead is the easiest to pick out so i got that.  I don't really know
what is going on in the verse but the intro (which is played again towards the end) and
the chorus weren't hard.  I'm just waiting for someone to improve on this.

Intro (also last verse):
e|-----------------------------------------------|---------------|
B|---12~-----------------------------------------|---------------|
G|-8----------11h13-11p9----13~--------8h9h11----|--8-8-8~-------|
D|------------9-----9----11----------------------|--9-9-9~-------|
A|-----------------------------------------------|--7-7-7~-------|
E|-----------------------------------------------|---------------|

What i can make of the verse lead:
e|-----------------------------------------------|---------------|
B|-----------------------------------------------|---------------|
G|-8-88---11h13-11p9-9---88------8h9h11----------|--8-8-8~-------|
D|-9-99---9-----9----11--99----------------------|--9-9-9~-------|
A|-----------------------------------------------|--7-7-7~-------|
E|-----------------------------------------------|---------------|
(theres also a cool little piece played by the lead just before the pre-chorus that i 
figure out, its subtle and i couldn't get it)

Pre-Chorus
e|-12--12--11--11---|-12--12--11--11--9--9--11--11---------------|
B|---12--12--12--12-|---12--12--12--12-12-12--12--12--(x2)-------|
G|------------------|--------------------------------------------|
D|------------------|--------------------------------------------|
A|------------------|--------------------------------------------|
E|------------------|--------------------------------------------|

Chorus
e|-12--12--12--12--14--14--16--16--------------------------------|
B|---12--12--12--12--12--12--12--12----!x6)----------------------|
G|---------------------------------------------------------------|
D|---------------------------------------------------------------|
A|---------------------------------------------------------------|
E|---------------------------------------------------------------|

Bridge
e|---------------------------------------------------------------|
B|---------------------------------------------------------------|
G|-9--8-8-6-6-6-6---9-8-8-11-11-11-13-13-13----------------------|
D|---------------------------------------------------------------|
A|-7--6-6-4-4-4-4---7-6-6-9--9--9--11-11-11----------------------|
E|---------------------------------------------------------------|

e|---------------------------------------------------------------|
B|---------------------------------------------------------------|
G|-9-8-8--6-6-6-6---4-4-4-4-4-4-4-4-4-4-4-4----------------------|
D|------------------------4-4-4-------4-4-4----------------------|
A|-7-6-6--4-4-4-4---2-2-2-2-2-2-2-2-2-2-2-2----------------------|
E|---------------------------------------------------------------|
the bridge plays twice

Please give me comments, corrections or suggestions.  This is a great song by a great 
 The full tab would be sweet.


| /  slide up
| \  slide down
| h  hammer-on
| p  pull-off
| ~  vibrato
| +  harmonic
| x  Mute note
===============================================================================
Добавлено: 01.12.2013
Другие материалы по этой песне:
  • Аккорды и текст

Страница создана 30.03.2012
http://primanota.ru/copeland/there-cannot-be-a-close-second-chords.htm
Привет, Гость.
Предлагаем пройти революционный курс по гитаре.
Подарок от PrimaNota.Ru, забирай!