PrimaNota.ru - самый крупный в мире бесплатный архив песенных текстов, аккордов, табулатур и нот


Copeland - The Grey Man - бас-таба, видео

Регистрация Запомнить меня
Войти через:  Facebook Google Twitter Vk Yandex Mail.ru

Copeland - The Grey Man - бас-таба, видео

Печатать
Просмотров: 108
-----------------------------------------------------------------------------
		            The Grey Man - Copeland
-----------------------------------------------------------------------------

Tabbed By: Ryan s
E-mail:

This song is on their cd that is not out yet but you can hear this song on their myspace.

Tuning: standard

	(0:35)twelves and tens play this three times
G|---------------------------------------------------------------------------|
D|---------------------------------------------------------------------------|
A|-12-10-12-0-10-12--10-10-10-10-10-10--12-10-12-0-10-12---------------------|
E|-------------------------------------------------------10-10-10-10-10-10---|

G|---------------------------------------------------------------------------|
D|---------------------------------------------------------------------------|
A|-12-10-12-0-10-12--10-10-10-10-10-10---------------------------------------|
E|-------------------------------------8-8-8-8-8-8-12-12-12-12-12-12---------|

	(1:17)those are twelves. Just listen for the timing for the last part.
G|---------------------------------------------------------------------------|
D|---------------------------------------------------------------------------|
A|-8888888888888888-------------------------------------3333----3333---3333--|
E|------------------33333333-1212121212121212-0000-1111------1-------1-----1-|

	(1:44)play this three times
G|---------------------------------------------------------------------------|
D|---------------------------------------------------------------------------|
A|-12-10-12-0-10-12--10-10-10-10-10-10--12-10-12-0-10-12---------------------|
E|-------------------------------------------------------10-10-10-10-10-10---|

G|---------------------------------------------------------------------------|
D|---------------------------------------------------------------------------|
A|-12-10-12-0-10-12--10-10-10-10-10-10---------------------------------------|
E|-------------------------------------8-8-8-8-8-8-12-12-12-12-12-12---------|

	(2:26)
G|---------------------------------------------------------------------------|
D|---------------------------------------------------------------------------|
A|-8888888888888888----------------------------------------------------------|
E|------------------33333333-00000000-12-12-12-12----------------------------|

	These are ones.
G|---------------------------------------------------------------------------|
D|---------------------------------------------------------------------------|
A|--------------3333--------------3333--------------3333---------------------|
E|-111111111111------111111111111------111111111111------111111111111--------|

	(2:54)play this twice
G|---------------------------------------------------------------------------|
D|---------------------------------------------------------------------------|
A|-12-10-12-0-10-12--10-10-10-10-10-10--12-10-12-0-10-12---------------------|
E|-------------------------------------------------------10-10-10-10-10-10---|

G|---------------------------------------------------------------------------|
D|---------------------------------------------------------------------------|
A|-12-10-12-0-10-12--10-10-10-10-10-10---------------------------------------|
E|-------------------------------------8-8-8-8-8-8-12-12-12-12-12-12---------|

	(3:21)
G|---------------------------------------------------------------------------|
D|---------------------------------------------------------------------------|
A|-8888888888888888----------------------------------------------------------|
E|------------------33333333-1212121212121212-0000---------------------------|

G|---------------------------------------------------------------------------|
D|---------------------------------------------------------------------------|
A|--------------3333--------------3333--------------3333---------------------|
E|-111111111111------111111111111------111111111111------111111111111--------|

G|---------------------------------------------------------------------------|
D|---------------------------------------------------------------------------|
A|---------------------------------------------------------------------3-----|
E|-/12-12-12-12-111111111111-/12-12-12-12-111111111111-/12-12-12-12-1-----1--|


| /  slide up
| \  slide down
| h  hammer-on
| p  pull-off
| ~  vibrato
| +  harmonic
| x  Mute note
===============================================================================
Добавлено: 11.11.2013
Другие материалы по этой песне:
  • Аккорды и текст

Страница создана 11.11.2013
http://primanota.ru/copeland/the-grey-man-chords.htm
Привет, Гость.
Предлагаем пройти революционный курс по гитаре.
Подарок от PrimaNota.Ru, забирай!