PrimaNota.ru - самый крупный в мире бесплатный архив песенных текстов, аккордов, табулатур и нот


Copeland - That Awful Memory Of Yours - аккорды и текст, видео

Регистрация Запомнить меня
Войти через:  Facebook Google Twitter Vk Yandex Mail.ru

Copeland - That Awful Memory Of Yours - аккорды и текст, видео

Печатать
Просмотров: 106
That Awful Memory Of Yours
Copeland
--apparently no one knows how to play this so i guess ill write the tab--
--Listen to the song while learning this--
--Questions jarodknuth@gmail.com--

    C# Minor 7th          A5        
    e-----4-----       e---X-----
    B-----5-----       B---X-----
    G-----4-----       G---X-----
    D-----6-----       D---7-----
    A-----4-----       A---7-----
    E-----X-----       E---5-----

         G#5               G5         
    e-----X-----       e---X-----
    B-----X-----       B---X-----
    G-----X-----       G---X-----
    D-----6-----       D---5-----
    A-----6-----       A---5-----
    E-----4-----       E---3-----

         F#5               B5               
    e-----X-----       e---X-----
    B-----X-----       B---X-----
    G-----X-----       G---X-----
    D-----4-----       D---9-----
    A-----4-----       A---9-----
    E-----2-----       E---7-----

      B5/A#(B7)           E5
    e-----X-----       e---X-----
    B-----X-----       B---X-----
    G-----X-----       G---X-----
    D-----8-----       D---14----
    A-----9-----       A---14----
    E-----7-----       E---12----



Intro/Chorus
    
That awful memory of yours 
           C#m7
what blessing what a curse
     A5              G#5 
and all our confessing forgotten every word we're saying 
            G5                   F#5              B5     B5/A#  E5
(Same as verse)
 vvvvvvvvvvvvv
from the womb I heard my name 
on your lips its sounds the same 
as the many times I've ignored it since that day 

(Same As verse)
vvvvvvvvvvvvvvvv
that awful memory of yours 
ill never make anyone happy that way 
telling all the mistakes that I've made 
but I promise you ill never be the same 
would you found me like a treasure from a long forgotten time 
and if you kept me here forever you know I wouldn't mind 



     A major         
    e---0---
    B---2---
    G---2---
    D---2---
    A---0---
    E---X---

    A add something (sorry dont know what the chord is called lets call it Asus)
    e---0---
    B---3---
    G---2---
    D---4---
    A---0---
    E---X---

BRIDGE1
       welcome home oh welcome home
 A  Asus                       A  Asus
you know that id embrace you I was to a shamed to face
    A            Asus             
saying welcome home welcome home 
                            A  Asus
Добавлено: 20.09.2013
Другие материалы по этой песне:
  • Аккорды и текст

Страница создана 29.04.2012
http://primanota.ru/copeland/that-awful-memory-of-yours-chords.htm
Привет, Гость.
Предлагаем пройти революционный курс по гитаре.
Подарок от PrimaNota.Ru, забирай!