PrimaNota.ru - самый крупный в мире бесплатный архив песенных текстов, аккордов, табулатур и нот


Copeland - She Changes Your Mind - текст песни, таба, видео

Регистрация Запомнить меня
Войти через:  Facebook Google Twitter Vk Yandex Mail.ru

Copeland - She Changes Your Mind - текст песни, таба, видео

Печатать
Просмотров: 178
Уроки эстрадного вокала в Санкт-Петербурге
--------------------------------------------------------------------------
		     She Changes Your Mind - Copeland
--------------------------------------------------------------------------
Tabbed by: AITHROCK
Email:

I was getting pissed cause no one was tabbing Copeland songs (atleast until
their new album came out, but no one else tabbed this song, so I decided t
chip in. This is my first tab, and obviously it's "by ear" since no one else
did it, so tell me what you think.

Tuning: Drop D
VERSES 1 & 2 "SHE CHANGES YOUR MIND..."
e|-----------------------------------------------------------------------|
B|-----------------------------------------------------------------------|
G|-----4~-------2~-------7~-------7~-------------------------------------|
D|-----4~-------2~-------7~-------7~-------------------------------------|X2
A|--XX-2~----XX-0~----XX-5~----XX-4~-------------------------------------|
E|--XX-------XX-------XX-5~----XX-4~-------------------------------------|
       Bm       A        G        F# 
(I use the barre and open chord versions of Bm and A because I think they
sound better than the drop D versions which you will see in the chorus.
They just have the cleaner sound needed for the verses, but use which
ever you like.)
PRECHORUS "IF I COULD OPEN UP MY HEART..."
e|-----------------------------------------------------------------------|
B|-----------------------------------------------------------------------|
G|--7-------7--------7--------7------------------------------------------|
D|--7-------7--------7--------7------------------------------------------|
A|--5-------4--------5--------4------------------------------------------|
E|--5-------4--------5--------4------------------------------------------|
    G       F#       G        F#
CHORUS "IT WAS YOUR ROPE..."
e|-----------------------------------------------------------------------|
B|-----------2-----------------------------------------------------------|
G|--7--------3--------4--------11--9---7--------11--9---7---7---4--------|
D|--7--------0--------2--------9---7---7--------9---7---7---7---2--------|
A|--5--------0--------2--------9---7---5--------9---7---5---4---2--------|
E|--5--------0--------2--------9---7---5--------9---7---5---4---2--------|
    G        D        F#       Bm  A   G        Bm  A   G   F#  E
BRIDGE1 "IT'S THE SONG YOU MUST SING OUT..."
e|-----------------------------------------------------------------------|
B|-----------------------------------------------------------------------|
G|--7--------7--------7--------7-----------------------------------------|
D|--7--------7--------7--------7-----------------------------------------|
A|--4--------5--------4--------5-----------------------------------------|
E|--4--------5--------4--------5-----------------------------------------|
BRIDGE2 
e|-----------------------------------------------------------------------|
B|-----------------------------------------------------------------------|
G|--7777----7777----6666----6666-4/6-7777----7777------------------------|
D|--7777----7777----4444----4444-2/4-7777----7777------------------------|
A|--5555----5555----4444----4444-2/4-5555----5555------------------------|
E|--5555----5555----4444----4444-2/4-5555----5555------------------------|

Добавлено: 06.06.2013
Другие материалы по этой песне:
  • Аккорды и текст

Страница создана 25.03.2012
http://primanota.ru/copeland/she-changes-your-mind-chords.htm
Привет, Гость.
Предлагаем пройти революционный курс по гитаре.
Подарок от PrimaNota.Ru, забирай!