PrimaNota.ru - самый крупный в мире бесплатный архив песенных текстов, аккордов, табулатур и нот


Copeland - Second Star Left To Go Unnoticed - таба, видео

Регистрация Запомнить меня
Войти через:  Facebook Google Twitter Vk Yandex Mail.ru

Copeland - Second Star Left To Go Unnoticed - таба, видео

Печатать
Просмотров: 89
note: everything isn't show as many times as it's played so listen for it
Drop-D tuning

Intro
e|------------------------------------------------------------------------|
B|------------------------------------------------------------------------|
G|------------9--11--13------------9--11-13-------------14--9--6----------|
D|-0-0-0-0-0--x--x---x---0-0-0-0-0-x--x--x---5-5-5-5-5--x---x--x----x2----|
A|-0-0-0-0-0--7--9---11--0-0-0-0-0-7--9--11--5-5-5-5-5--12--7--4----------|
D|-0-0-0-0-0-------------0-0-0-0-0-----------5-5-5-5-5--------------------|
 pm.........             .........           
[Guitar 2 does the 555 while the other guitar keeps sliding with the other chords]

e|----------------------------------------------------------------------|
B|----------------------------------------------------------------------|
G|------------9--11--13------------13-13-14-16-------------14--9--6-----|
D|-0-0-0-0-0--x--x---x---0-0-0-0-0-x--x--x--x---5-5-5-5-5--x---x--x-----|
A|-0-0-0-0-0--7--9---11--0-0-0-0-0-11-11-12-14--5-5-5-5-5--12--7--4-----|
D|-0-0-0-0-0-------------0-0-0-0-0--------------5-5-5-5-5---------------|
 pm.........             .........

e|------------------------------------------------------------------------|
B|------------------------------------------------------------------------|
G|------------------------------------------------------------------------|
D|-9-9-9-9-10-10-10-10--5-5-5-5-5-4-5-5--9-9-9-9-10-10-10-10--5-5--5-5--5-|
A|-9-9-9-9-10-10-10-10--5-5-5-5-5-4-5-5--9-9-9-9-10-10-10-10--5-5--5-5--5-|
D|-9-9-9-9-10-10-10-10--5-5-5-5-5-4-5-5--9-9-9-9-10-10-10-10--5-5--5-5--5-|

Verse
e|--------------------------------------------------------------|
B|--------------------------------------------------------------|
G|--------------------------------------------------------------|
D|--5-5-5-5-5-5-9-9-9-9-9-9-x2--5-5-5-5-5-9-9-9-9-9--x2---------|
A|--5-5-5-5-5-5-9-9-9-9-9-9-----5-5-5-5-5-9-9-9-9-9-------------|
D|--5-5-5-5-5-5-9-9-9-9-9-9-----5-5-5-5-5-9-9-9-9-9-------------|
   pm......................
[First two times palm mute, third and fourth strum]

[Guitar 2 in the background very softly while the other guitar is strumming]
e|-------------------------------------------------------------------------|
B|-------------------------------------------------------------------------|
G|-4-4-4-4-4-----------7-7----------7-------------------------------7----7-|
D|-x-x-x-x-x--5-5-5-5-----9-9-5-5-5---9-9--7-7-7-7--5-5-5-7-7-7-5-5--9-9---|
A|-2-2-2-2-2---------------------------------------------------------------|
D|-------------------------------------------------------------------------|

Chorus
e|------------------------------------------|
B|------------------------------------------|
G|------------------------------------------|
D|--0-10--5--9-10--5--0-10-5---9-10--0~~----|
A|--0-10--5--9-10--5--0-10-5---9-10--0~~----|
D|--0-10--5--9-10--5--0-10-5---9-10--0~~----|
[let the last chord ring]

Bridge:
[Guitar 1: just let the 000 ring out foreva]

[Guitar 2}
e|-----------9------9-----------------9---------|
B|--------10--10------10-----------10---10------|
G|-----11--------11------11-----11---------11---|
D|--12-----------------------12-----------------|
A|----------------------------------------------|
E|----------------------------------------------|
Добавлено: 01.08.2013
Другие материалы по этой песне:
  • Аккорды и текст

Страница создана 01.08.2013
http://primanota.ru/copeland/second-star-left-to-go-unnoticed-chords.htm
Привет, Гость.
Предлагаем пройти революционный курс по гитаре.
Подарок от PrimaNota.Ru, забирай!