PrimaNota.ru - самый крупный в мире бесплатный архив песенных текстов, аккордов, табулатур и нот


Copeland - The Day I Lost My Voice The Suitecase Song - бас-таба, видео

Регистрация Запомнить меня
Войти через:  Facebook Google Twitter Vk Yandex Mail.ru

Copeland - The Day I Lost My Voice The Suitecase Song - бас-таба, видео

Печатать
Просмотров: 130
The Day I Lost My Voice (The Suite Case Song) - Copeland (feat. Rae Cassidy) // You Are My Sunshine

Tuning: standard

 Verse 1 (0:07) "As sure as the floor 'neath my toes ..."
G|---------------------------------------------------------------------------|
D|---------------------------------------------------------------------------|
A|---------------------------------------------------------------------------|
E|-0-1--0-3--0-5--5-8--0-1--0-3--0-5--0-58-10/1------------------------------|

 (0:21)
G|---------------------------------------------------------------------------|
D|---------------------------------------------------------------------------|
A|---------------------------------------------------------------------------|
E|-0-1--0-3--0-5--5-8--0-1--0-3--0-5--5-810-12/1-----------------------------|

Verse 2 (0:36)
G|---------------------------------------------------------------------------|
D|---------------------------------------------------------------------------|
A|---------------------------------------------------------------------------|
E|-0-1--0-3--0-5--5-8--0-1--0-3--0-5--0-58-10/1------------------------------|

 (0:50)
G|---------------------------------------------------------------------------|
D|---------------------------------------------------------------------------|
A|---------------------------------------------------------------------------|
E|-0-1--0-3--0-5--5-8--0-1--0-3--0-5--5-810-12/1-----------------------------|

Chorus (1:04)
G|---------------------------------------------------------------------------|
D|---------------------------------------------------------------------------|
A|---------------------------------------------------------------------------|
E|-0-1--0-3------------------------------------------------------------------|
 
 Pause between (1:06-1:25)
 
(1:26)
G|---------------------------------------------------------------------------|
D|---------------------------------------------------------------------------|
A|---------------------------------------------------------------------------|
E|-5878/1-0-3--3-5--5-8--0-1--0-3--0-5--5810-12/1----------------------------|

Post Chorus (1:40)
G|---------------------------------------------------------------------------|
D|---------------------------------------------------------------------------|
A|---------------------------------------------------------------------------|
E|-0-1--0-3--0-5--5-8--------------------------------------------------------|

Verse 3 (1:48) "What could be an anchor here..."
G|---------------------------------------------------------------------------|
D|---------------------------------------------------------------------------|
A|---------------------------------------------------------------------------|
E|-0-1--0-3--0-5--5-810-12/1--0-1--0-3--0-5--5-8--0-1--0-3--0-5--5-810-12/1--|
 (2:09)
G|---------------------------------------------------------------------------|
D|---------------------------------------------------------------------------|
A|---------------------------------------------------------------------------|
E|-0-1--0-3--0-5--58108------------------------------------------------------|
 (2:17)
G|---------------------------------------------------------------------------|
D|---------------------------------------------------------------------------|
A|---------------------------------------------------------------------------|
E|-0-1--0-3--0-5--5-8--------------------------------------------------------|
 
 Pause between (2:23-3:06) (Chorus)                                                             
  (3:07-3:35) (Bridge)
G|-----------------------------------------------------------------------------------|
D|-----------------------------------------------------------------------------------|
A|----12/5---7---8---10----12/5---7---8---10---12/5---7---8---10---12/5---7---8------|
E|-5-------5---0---8----5-------5---0---8----5------5---0---8----5------5---0---8-7-5|
  Chorus(3:36)
G|---------------------------------------------------------------------------|
D|---------------------------------------------------------------------------|
A|---------------------------------------------------------------------------|
E|-0-1--0-3--0-5--5-8--0-1--0-3--0-5--5-810-12/1-----------------------------|
  (3:51)
G|---------------------------------------------------------------------------|
D|---------------------------------------------------------------------------|
A|---------------------------------------------------------------------------|
E|-0-1--0-3--0-5--5-8--0-1--0-3--0-5--5-810-12/1-----------------------------|
  (4:05)
G|---------------------------------------------------------------------------|
D|---------------------------------------------------------------------------|
A|---------------------------------------------------------------------------|
E|-0-1--0-3--0-5--5-8--0-1--0-3--0-5--5-810-12/1-----------------------------|
  (4:20)
G|---------------------------------------------------------------------------|
D|---------------------------------------------------------------------------|
A|---------------------------------------------------------------------------|
E|-0-1--0-3--0-5--5-8--0-1--0-3--0-5--0-3--0-3-------------------------------|


Lyrics
Verse one)
As sure as the floor 'neath my toes
And somehow not surprised
That I was superimposed
Somehow in this life
And if my friends and my foes
Would just drop me a line
That'd be nice

(Verse two)
You see love is a drink
That goes straight to my head
And time is a lover
And I'm caught in her stead
And the sentiment there
Follows me straight to my bed
Through the night

(Chorus)
I've got my life in a suitcase
I'm ready to run run run away
I've got no time          
Cause I'm always
Trying to run run run away
Cause everyday in here feels like it's only a game
I've got my life in a suitcase
A suitcase, A suitcase,
A suitcase

(Verse three)
What could be an anchor here
With a storm on the rise
When you're never meant to see so clear
When smoke gets in your eyes
And the man in the moon never makes his replies understood

(Chorus)
I've got my life in a suitcase
I'm ready to run run run away
I've got no time
Cause I'm always
Trying to run run run away
Cause everyday in here feels like it's only a game
I've got my life in a suitcase
A suitcase, A suitcase,
A suitcase, A suitcase, A suitcase,
A suitcase, A suitcase, A suitcase,
A suitcase, A suitcase

(Bridge)
For a moment I was warm and the world made sense
Ah, ah, ah, ah...
For a moment here this storm had no consequence
Ah, ah, ah, ah...

(Chorus)
I've got my life in a suitcase
I'm ready to run run run away.
I've got no time
Cause I'm always
Trying to run run run away.
Cause everyday in here feels like it's only a game
I've got my life in a suitcase


This is my first bass tab
If there's anything I'm missing or wrong just leave a comment or email me at dj.floods@yahoo.com
I hope you enjoyed it :)
Добавлено: 02.08.2015
Другие материалы по этой песне:
  • Аккорды и текст

Страница создана 02.08.2015
http://primanota.ru/copeland/day-i-lost-my-voice-suitecase-song-chords.htm
Привет, Гость.
Предлагаем пройти революционный курс по гитаре.
Подарок от PrimaNota.Ru, забирай!