PrimaNota.ru - самый крупный в мире бесплатный архив песенных текстов, аккордов, табулатур и нот


Copacabana Club - Just Do It - бас-таба, видео

Регистрация Запомнить меня
Войти через:  Facebook Google Twitter Vk Yandex Mail.ru

Copacabana Club - Just Do It - бас-таба, видео

Печатать
Просмотров: 118
Intro (0:08)
G|---------------------------------------------------------------------------------------|
D|---------------------------------------------------------------------------------------|
A|--7~------7~----9-------------7~---------------7~--9-----------------------------------|
E|-------9~----------9~---7--9-------9~---7--9---------9---------------------------------|

Verse
 [A]
G|---------------------------------------------------------------------------------------|
D|---------------------------------------------------------------------------------------|
A|--7--7--7---7--9-------------------7--9---7--7--7---7--9-------------------------------|
E|--------------------9--9--9----7--9--------------------------9--9--9---7--7/9\---------|

 [B]
G|---------------------------------------------------------------------------------------|
D|-------------------------------------------------------------------11-11-11--9---------|
A|--7--7--7---7--9-------------------7--9---7--7--7---7--9-----------------------11--9---|
E|--------------------9--9--9----7--9--------------------------9--9----------------------|

 [C]
G|---------------------------------------------------------------------------------------|
D|---------------------------------------------------------------------------------------|
A|--7--7--7---7--9-------------------7--9---7--7--7---7--9--------------------7--9-------|
E|--------------------9--9--9----7--9--------------------------9--9--9----7--9-----------|

Chorus
G|---------------------------------------------------------------------------------------|
D|----------------------------------9--9---9-9-------------------------------------------|
A|---------------------------------------------------------------------------------------|
E|--5~--7~--5~--7~--5~--7~--5~--7--------------------------------------------------------|

Solo
 [A]
G|---------------------------------------------------------------------------------------|
D|------------------------------------11-------------------------------------------------|
A|--7--7--7---7--9-----------------------------------------------------------------------|
E|--------------------9--9--9------------------------------------------------------------|

 [B]
G|---------------------------------------------------------------------------------------|
D|----------------------------11-11-11--9------------------------------------------------|
A|--7--7--7---7--9-------------------------11--9-----------------------------------------|
E|----------------------9--9-------------------------------------------------------------|

End
G|---------------------------------------------------------------------------------------|
D|---------------------------------------------------------------------------------------|
A|----------------------------------------------7~~~-------------------------------------|
E|--5~--7~--5~--7~--5~--7~--5~--7-5-7-5-7-9-7-5------------------------------------------|


Here's the structure of the song
________________________________

Intro

Verse A
Verse B
Verse A
Verse B
Verse A (2x)

Chorus

Verse A
Verse B
Verse C
Verse B
Verse A (2x)

Chorus

Solo A (3x)
Solo B  (5x)
Verse C
Verse B
Verse A (2x)

End
________________________________
Добавлено: 26.11.2013
Другие материалы по этой песне:
  • Аккорды и текст

Страница создана 26.11.2013
http://primanota.ru/copacabana-club/just-do-it-chords.htm
Привет, Гость.
Предлагаем пройти революционный курс по гитаре.
Подарок от PrimaNota.Ru, забирай!