PrimaNota.ru - самый крупный в мире бесплатный архив песенных текстов, аккордов, табулатур и нот


Cootees - Blank - текст песни, таба, бас-таба, видео

Регистрация Запомнить меня
Войти через:  Facebook Google Twitter Vk Yandex Mail.ru

Cootees - Blank - текст песни, таба, бас-таба, видео

Печатать
Просмотров: 162
		   Author/Artist: The Cootees
Title: blank
Album: Let's Play House
Transcribed by: John Farthing
Email: spamboy@mindless.com

Intro:  play a couple of times then on the verse play pm
------------------------------------------------------------------------------
------------------------------------------------------------------------------
----6-6--------8-8-------6-6-------8-8----------------------------------------
--6-6-6---6-6--8-8--6-6--6-6--6-6--8-8----------------------------------------
--6-4-4---6-6--6-6--6-6--4-4--6-6--6-6----------------------------------------
--4-------4-4-------4-4-------4-4---------------------------------------------
                                                                              

Chorus:
------------------------------------------------------------------------------
------------------------------------------------------------------------------
-6-6-6--8-8-8----------------------6-6-6-6--8---------------------------------
-6-6-6--8-8-8---6-6-6-6---3-3-3-3--6-6-6-6--8---------------------------------
-4-4-4--6-6-6---6-6-6-6---3-3-3-3--4-4-4-4--6---------------------------------
----------------4-4-4-4---1-1-1-1---------------------------------------------

If anybody has any other tab from Songs From the Penalty Box please send them to me.
                                                                              

     
Добавлено: 03.06.2013
Другие материалы по этой песне:
  • Аккорды и текст

Страница создана 24.02.2012
http://primanota.ru/cootees/blank-chords.htm
Привет, Гость.
Предлагаем пройти революционный курс по гитаре.
Подарок от PrimaNota.Ru, забирай!