PrimaNota.ru - самый крупный в мире бесплатный архив песенных текстов, аккордов, табулатур и нот


Cooper Temple Clause - Safe Enough Distance Away - аккорды и текст, видео

Регистрация Запомнить меня
Войти через:  Facebook Google Twitter Vk Yandex Mail.ru

Cooper Temple Clause - Safe Enough Distance Away - аккорды и текст, видео

Печатать
Просмотров: 77
Уроки эстрадного вокала в Санкт-Петербурге
Safe Enough Distance Away
Cooper Temple Clause
-------------------------------------------------------------------------------
             Safe Enough Distance Away - The Cooper Temple Clause
-------------------------------------------------------------------------------
Tabbed by: GeminiRue
E-mail: geminirue@mail.ua

Tuning: Standard

Intro:
Am  Asus4 B7 Em

Am                    B7
Sick little butterfly I'll mend your wings
         Em                                Am
But I'm scared I might break them, they're delicate things
C                              B7
Keep an arms-length, there's a monster in me
            C                       B7
That I have trouble controlling occasionally
      Em
om my love....


Am                    B7
Heaven knows I made a fool of myself
   Em                    Am
A slick in the ocean for everyone else
   C                         B7
to drink and the rest of the tears that you cry
    C                        B7
The look on your face as you see me inside

Em            Am            C           Em
How could you think I could be good for you?
     C                    B7        
When all I destroy is the best I can do
       Em         Am         C            Em
At the end of the day it's a shame that I search
    C                        B7      
The reason I'll go is that I love you too much


Outro:
   Em                        C
e|----------------------0----------------------------------------------------|
B|----------------------0----1--111-1--111-1--111-1-1-1----------------------|
G|----------------------0----------------------------------------------------|
D|-2--2-2-2-2--2-2-2-2--2-2-2-2--0-2--2-2-2-2--2-2-2-2--2-2-2-2-2-2----------|
A|-2--2-2-2-2--2-2-2-2--2-2-2-2----3--3-3-3-3--3-3-3-3--3-3-3-3-3-3----------|
E|-0--0-0-0-2--2-2-2-3--3-3-3------------------------------------------------|

I thought you were running safe enough distance away
To think you were running safe enough distance away
I thought you were running safe enough distance away
To think you were running safe enough distance away 
Добавлено: 28.05.2016
Другие материалы по этой песне:
  • Аккорды и текст

Страница создана 04.04.2012
http://primanota.ru/cooper-temple-clause/safe-enough-distance-away-chords.htm
Привет, Гость.
Предлагаем пройти революционный курс по гитаре.
Подарок от PrimaNota.Ru, забирай!