PrimaNota.ru - самый крупный в мире бесплатный архив песенных текстов, аккордов, табулатур и нот


Cool Hand Luke - One Time - текст песни, таба, видео

Регистрация Запомнить меня
Войти через:  Facebook Google Twitter Vk Yandex Mail.ru

Cool Hand Luke - One Time - текст песни, таба, видео

Печатать
Просмотров: 161
Уроки эстрадного вокала в Санкт-Петербурге
Cool Hand Luke
One Time
from the album "Wake up, O Sleeper"


standard tuning
capo on 9th fret


Intro

e|---------------------------------------|
B|---------------------------------------|
G|---------------------------------------|
D|---------------------------------------|
A|-----7--7--7---7--7---7--7--7----------|
E|-----0--0--0---0--0---0--0--0----------|


Verses

e|---------------------------------------|
B|----0h1---3-----3-------3------5---3---|
G|---------------------------------------|
D|--2-----2----2------0------------------|
A|---------------------------------------|
E|---------------------------------------|

Chorus

e|---0--0--------------------------------|
B|---0--3--------------------------------|
G|---0--0--------------------------------|
D|---0--0--------------------------------|
A|---2--0-----9--7--5--------------------|
E|---0--2--------------2--3--5-----------|

Pre-Verse

e|-------0----0-------0---------0--------|
B|---------3----3--1----1--0------0------|
G|----0----------------------------------|
D|--2------------------------------------|
A|---------------------------------------|
E|---------------------------------------|


After build up

e|--0--0--0--0--0---3/8p0--0-0-0-3--2--0-----|
B|--0--1--3--0--1----------0-0-0-0--0--0-----|
G|--0--0--0--0--0----------0-0-0-0--0--0-----|
D|--2--2--2--2--2----------0-0-0-0--0--0-----|
A|--0--0--0--0--0----------0-0-0-------------|
E|--0--0--0--0--0----------0-0-0-------------|


Ending

e|---------------------------------------|
B|---------------------------------------|
G|---------------------------------------|
D|---------------------------------------|
A|----7--7--7--7--7--7/9--9--9--9--------|
E|----0--0--0--0--0--0----0--0--0--------|
Добавлено: 03.01.2016
Вам также может быть интересно:
Другие материалы по этой песне:
  • Аккорды и текст

Страница создана 30.04.2012
http://primanota.ru/cool-hand-luke/one-time-chords.htm
Привет, Гость.
Предлагаем пройти революционный курс по гитаре.
Подарок от PrimaNota.Ru, забирай!