PrimaNota.ru - самый крупный в мире бесплатный архив песенных текстов, аккордов, табулатур и нот


Cookin On 3 Burners - Cressy St Breakdown - таба, видео

Регистрация Запомнить меня
Войти через:  Facebook Google Twitter Vk Yandex Mail.ru

Cookin On 3 Burners - Cressy St Breakdown - таба, видео

Печатать
Просмотров: 105
Cookin' On 3 Burners - Cressy St Breakdown

|--------------------------------|---8-------------------8------------x7|---|
|---3--3-3-3-3-3-3-3-3-3-3-3-3-3-|---8-------------------8--------------|---|
|---3--3-3-3-3-3-3-3-3-3-3-3-3-3-|---8-------------------8--------------|---|
|---2--2-2-2-2-2-2-2-2-2-2-2-2-2-|---7-----------1-3p1-3-7-----------1--|---|
|-3-3--3-3-3-3-3-3-3-3-3-3-3-3-3-|---8-------1-3---------8-------1-3----|---|
|--------------------------------|-1---0-1-4---------------0-1-4--------|---|

|-8------8-------8--------------------8-------------------------------------|
|-9b(10)-9b(10)--9b(10)-----------9-9-9b(10)-8------------------------------|
|-----------------------10-8-10--------------8--8-8-10p8-10p8-10p8-10p8-10--|
|---------------------------------------------------------------------------|
|---------------------------------------------------------------------------|
|---------------------------------------------------------------------------|

|-----8-----------------8---------------------8-----------------------------|
|-9-x-9b(10)------------9b(10)----------------9b(10)------------------------|
|------------10p8-10p8--------8----------------------8----------8-8/10------|
|-------------------------------10-9p8p6-8-6-----------10-9p8p6-------------|
|---------------------------------------------------------------------------|
|---------------------------------------------------------------------------|

|-8----------------------8--------------------------------------------------|
|-9b(10)-----------------9b(10)-------------9-11b(13)----11b(13)-9----------|
|--------8----------------------8--8-8-8h10-----------10-----------10-8-----|
|----------10-9p8p6-8-6-----------------------------------------------------|
|---------------------------------------------------------------------------|
|---------------------------------------------------------------------------|

|---------------------------------------------------------------------------|
|----11b(13)----9------12-11p9-12-11p9-12-11p9-12-11p9-12-11p9-12-11p9------|
|-10---------10---10-8------------------------------------------------------|
|---------------------------------------------------------------------------|
|---------------------------------------------------------------------------|
|---------------------------------------------------------------------------|

|---------------------------------------------------------------------------|
|-12-11p9-12-11p9-11-9------------9-11p9-11b(13)----9-11b(13)-----9-11p9----|
|----------------------10-8--8/10----------------10------------10-----------|
|---------------------------------------------------------------------------|
|---------------------------------------------------------------------------|
|---------------------------------------------------------------------------|

|---------------------------------------------------------------------------|
|-12-11p9-12-11p9-12-11p9-12-11p9-12-11p9-12-11p9-12-11p9-12-11p9-12-11p9---|
|---------------------------------------------------------------------------|
|---------------------------------------------------------------------------|
|---------------------------------------------------------------------------|
|---------------------------------------------------------------------------|

|-------------11------11------------------11-----11-------------------------|
|-12-11p9-11--12b(13)-12b(13)-------------12b(13)12b(13)-x-12p11-x-11-11p9--|
|-----------------------------10--10-8h10-----------------------------------|
|---------------------------------------------------------------------------|
|---------------------------------------------------------------------------|
|---------------------------------------------------------------------------|

|------------------------------------------------------------------10--10-10|
|-11p9----11p9----11p9----11p9----11p9----11p9----11p9----11p9-----11--11-11|
|------10------10------10------10------10------10------10------10-----------|
|---------------------------------------------------------------------------|
|---------------------------------------------------------------------------|
|---------------------------------------------------------------------------|

|-x-8----8----xx-10-8-13----10-x-10-xx-13-8-xx-13---------------xx-10-------|
|-x-9h10-9h10-xx-11-9-12p11-11-x-11-xx-11-9-xx-12p11-11-11p9----xx-11-8-----|
|------------------------------------------------------------10-------8-----|
|---------------------------------------------------------------------------|
|---------------------------------------------------------------------------|
|---------------------------------------------------------------------------|

|-xx-13-13-x-13-xx-13-xx-8----x-10-xx-13------13--13-------13--13-------13--|
|-xx-11-11-x-11-xx-11-xx-9h10-x-11-xx-12h13-13----12h13-13-----12h13-13-----|
|---------------------------------------------------------------------------|
|---------------------------------------------------------------------------|
|---------------------------------------------------------------------------|
|---------------------------------------------------------------------------|

|-13------13-13------13-13-----------13-13-------13-xx-13-------13-xx-13----|
|-12h13-13---12h13-13---12p11----11-----12h13-13----xx-12h13-13----xx-12h13-|
|-----------------------------13--------------------------------------------|
|---------------------------------------------------------------------------|
|---------------------------------------------------------------------------|
|---------------------------------------------------------------------------|

|----13-xx-13----x13-13----x13-13----x13-13----x-13-x-13-xx-13----x-13-x-13-|
|-13----xx-12p11-x---12p11-x---12p11-x---12p11-x-11-x-13-xx--9h10-x-12-x-11-|
|---------------------------------------------------------------------------|
|---------------------------------------------------------------------------|
|---------------------------------------------------------------------------|
|---------------------------------------------------------------------------|

|-xx-13----xx-13----xx-13-13-x-13-x-13-xx-13----xx-13----xx-13-13-x-13-x-13-|
|-xx--9h10-xx--9h10-xx-11-11-x--9-x-11-xx--9h10-xx--9h10-xx-11-11-x--9-x-11-|
|---------------------------------------------------------------------------|
|---------------------------------------------------------------------------|
|---------------------------------------------------------------------------|
|---------------------------------------------------------------------------|

|-xx-13----x-13-xx-13-13-x-13-xx-13----x-13-xx-13-13-xx-13-xx-13----xx-1313-|
|-xx--9h10-x-11-xx-12-12-x-11-xx--9h10-x-11-xx-12-12-xx-11-xx--9h10-xx-1111-|
|---------------------------------------------------------------------------|
|---------------------------------------------------------------------------|
|---------------------------------------------------------------------------|
|---------------------------------------------------------------------------|

                             x18 
|-16------|----16p13----16p13-----|-16b(18)-13----------------------13p11---|
|-15b(16)-|-13-------13------13---|------------16-13------------------------|
|---------|-----------------------|------------------16-15p13-15-13---------|
|---------|-----------------------|-----------------------------------------|
|---------|-----------------------|-----------------------------------------|
|---------|-----------------------|-----------------------------------------|

|----------------------------------15-16-16/17-17---------------------------|
|-------18----16----------15----13-------------------18/16---16/15----15/13-|
|----------------------------------15-16-16/17------------------------------|
|-15-18----17----17/15-15----13-------------------18-------17------15-------|
|---------------------------------------------------------------------------|
|---------------------------------------------------------------------------|

                                                            x23
|--------------------------------------------|-----------------|------------|
|---13-13-13---------------------------------|-----------------|------------|
|---------13b(14)-10-------------------------|-8-7-88--7-8-7-8-|------------|
|13------------------13-10-------------------|-----------------|------------|
|--------------------------14p13p11-11/13----|-----------------|------------|
|-----------------------------------------13-|-----------------|------------|


|---8-------------------8------------x25|-----------------------------------|
|---8-------------------8---------------|---3--3-3-3-3-3-3-3-3--------------|
|---8-------------------8---------------|---3--3-3-3-3-3-3-3-3--------------|
|---7-----------1-3p1-3-7-----------1---|---2--2-2-2-2-2-2-2-2--------------|
|---8-------1-3---------8-------1-3-----|-3-3--3-3-3-3-3-3-3-3--------------|
|-1---0-1-4---------------0-1-4---------|-----------------------------------|

Transcrita por: Aldo Alain
Добавлено: 14.06.2013
Другие материалы по этой песне:
  • Аккорды и текст

Страница создана 14.06.2013
http://primanota.ru/cookin-on-3-burners/cressy-st-breakdown-chords.htm
Привет, Гость.
Предлагаем пройти революционный курс по гитаре.
Подарок от PrimaNota.Ru, забирай!