PrimaNota.ru - самый крупный в мире бесплатный архив песенных текстов, аккордов, табулатур и нот


Cook Ross - Changing Names - аккорды и текст, видео

Регистрация Запомнить меня
Войти через:  Facebook Google Twitter Vk Yandex Mail.ru

Cook Ross - Changing Names - аккорды и текст, видео

Печатать
Просмотров: 64
Changing Names
Cook Ross
Nice acoustic song, easy to play... look out for this guy. You can work
out the strumming pattern yourself, I^Òm too lazy, good
luck!

Capo 1st fret, but it also sounds good without.

 

Verse

 

   Am                       Em                 Em

---0--------0----------------0-------------------0---

---1--------0----------------0-------------------0---

---2--------2----------------0-------------------0---

---2--------2-------0--------2---------0---------2---

--------------------2--------2---------2---------2---

--------------------b2-----------------b2------------

 

I wanted to see your hurt. . .

 

 

Chorus

 

       G       Csus2     Em               

-------3--------0---------0-------

-------0--------0---------0-------   

-------0--------0---------0-------

-------0--------2---------2-------

-------2--------3---------2-------

-------3--------0-----------------

 

How could you treat me like this. . .

 

b = bend
     
Добавлено: 24.11.2013
Другие материалы по этой песне:
  • Аккорды и текст

Страница создана 15.08.2013
http://primanota.ru/cook-ross/changing-names-chords.htm
Привет, Гость.
Предлагаем пройти революционный курс по гитаре.
Подарок от PrimaNota.Ru, забирай!