PrimaNota.ru - самый крупный в мире бесплатный архив песенных текстов, аккордов, табулатур и нот


Converge - Forsaken - текст песни, таба, видео

Регистрация Запомнить меня
Войти через:  Facebook Google Twitter Vk Yandex Mail.ru

Converge - Forsaken - текст песни, таба, видео

Печатать
Просмотров: 189
Уроки эстрадного вокала в Санкт-Петербурге
D--------------------------------------------5-4------|
A----------------------------------------5-4-----5-6--|
F------------------------------------5-4--------------|
C-----------------------------------------------------|
G--0-0-0-0-0-0-0-0-0-0-0-0-0-0-0-0--------------------|
C--0-0-0-0-0-0-0-0-0-0-0-0-0-0-0-0--------------------|  X 4

D-----------------------------------------7-6---------|
A-------------------------------------6-5-------------|
F---------------------------------5-4-----------------|
C-----------------------------------------------------|
G-0-0--0--0-0-0-0-0-----------------------------------|
C-0-0--0--0-0-0-0-0- X 3---0-0--0---------------- X 2-|

D----------------------------------------7-6----------|
A------------------------------------6-5--------------|
F--------------------------------5-4------------------|
C-----1h2--------------------1h2----------------------|
G---3-----3-0--------------3--------------------------|
C-0-----------4-3- X 3 --0----------------------------|

D-----------------------------------------------------|
A-----------------------------------------------------|
F-----------------------------------------------------|
C--4-3p0~--4-3----------4-3---------------------------|
G--4-3p0~--4-3-0--0-0-0-4-3-0--0--0-0-0-0-0-0-0-0-----|
C--4-3p0~--4-3-0--0-0-0-4-3-0--0--0-0-0-0-0-0-0-0-----|

D-----------------------------------------------------|
A-----------------------------------------------------|
F-----------------------------------------------------|
C-------------------------4-5-4-2-4-------------------|
G-0--0-0-0-4-3-0--0-0-0-0-----------------------------|
C-0--0-0-0-4-3-0--0-0-0-0-----------------------------|

D---------------------------------------------7-6~----|
A-----------------------------------------6-5---------|
F-------------------------------------5-4-------------|
C-----------------------------------------------------|
G--0--0--0-0-0-0-0-0-----------0-0--0-----------------|
C--0--0--0-0-0-0-0-0---- X 3 --0-0--0-----------------|

D-----------------------------------------------------|
A-----------------------------------------------------|
F-----------------------------------------------------|
C--4-3p0----------------------------------------------|
G--4-3p0---0-0-0-0-0-0-0-0----------------------------|
C--4-3p0---0-0-0-0-0-0-0-0-- GO!!!--------------------|

D-----------------------------------------------------|
A-----------------------------------------------------|
F-----------------------------------------------------|
C---4-3~-0-0-2-2-5-5-4-3-0-0-2-2-0-0-0-0-0-0----------|
G---4-3~-0-0-2-2-5-5-4-3-0-0-2-2-0-0-0-0-0-0----------|
C---4-3~-0-0-2-2-5-5-4-3-0-0-2-2-0-0-0-0-0-0---- X 4 -|

this fill goes in every 2nd bar of the above line-

D------4-4-2-2----------------------------------------|
A--------------3-3------------------------------------|
F--3-3------------------------------------------------|
C-----------------------------------------------------|
G-----------------------------------------------------|
C-----------------------------------------------------|

D-----------------------------------------------------|
A-----------------------------------------------------|
F------10-10-9-9--------------------------------------|
C--9-9-----------10-10-- X 4 -------------------------|
G-----------------------------------------------------|
C-----------------------------------------------------|

D---------------------------------------------7*------|
A------------------------------------------7*---------|
F-----------------------------------------------------|
C--4-3-2-0--4-5-4-2-0--4-3-2-0--0-0-0-0---------------|
G--4-3-2-0--4-5-4-2-0--4-3-2-0--0-0-0-0---------------|
C--4-3-2-0--4-5-4-2-0--4-3-2-0--0-0-0-0--------- X 3 -|

on the last onoe dont play the harmonics.

this was original played and recorded in Drop D but converge now play
it in C and they hit opens instead of holding the 2nd fret, making the song alot lower.
Добавлено: 05.07.2012
Другие материалы по этой песне:
  • Аккорды и текст

Страница создана 20.05.2012
http://primanota.ru/converge/forsaken-chords.htm
Привет, Гость.
Предлагаем пройти революционный курс по гитаре.
Подарок от PrimaNota.Ru, забирай!