PrimaNota.ru - самый крупный в мире бесплатный архив песенных текстов, аккордов, табулатур и нот


Converge - Distance And Meaning - текст песни, таба, видео

Регистрация Запомнить меня
Войти через:  Facebook Google Twitter Vk Yandex Mail.ru

Converge - Distance And Meaning - текст песни, таба, видео

Печатать
Просмотров: 237
Уроки эстрадного вокала в Санкт-Петербурге
Авторы музыки: Kurt Ballou, Nate Newton, Ben Koller, Jacob Bannon
Авторы текста: Jacob Bannon
-------------------------------------------------------------------------------
Distance and Meaning  -Converge
-------------------------------------------------------------------------------
Tabbed by:madmax
Email:madmax@gmx.at

Tuning:drop #C (tune Drop D a half step down)
Main riff
e|5-5--5-5---------------------------------------------------------------------|
B|----------0----0-0-----------------------------------------------------------|
G|3-3--3-3—-3/6--6-6-----3*Times----6~-----------------------------------------|
D|-----------------------------------------------------------------------------|
A|-----------------------------------------------------------------------------|
E|-----------------------------------------------------------------------------|


e|5-5--5-5-----------------------------|
B|----------0----0-0-------------------|
G|3-3--3-3—-3/6--6-6-----3*Times----6--|-(several harmonics at different positions with right hand)
D|-------------------------------------|
A|-------------------------------------|
E|-------------------------------------|

e|5-5--5-5---------------------------------------------------------------------|
B|----------0----0-0-----------------------------------------------------------|
G|3-3--3-3—-3/6--6-6-----3*Times----6/20---------------------------------------|
D|-----------------------------------------------------------------------------|
A|-----------------------------------------------------------------------------|
E|-----------------------------------------------------------------------------|

e|5-5--5-5---------------------------------------------------------------------|
B|----------0----0-0-----------------------------------------------------------|
G|3-3--3-3—-3/6--6-6-----3*Times----6~-----------------------------------------|
D|-----------------------------------------------------------------------------|
A|-----------------------------------------------------------------------------|
E|-----------------------------------------------------------------------------|


Pre.chorus
E|-----------------------------------------------------------------------------|
B|---------0-0000-000------------0-00000000------------------------------------|
G|33333333/6-6666^766\3-33333333/6-6666^766------------------------------------|
D|--------------bend------------------bend-------------------------------------|
A|-----------------------------------------------------------------------------|
E|-----------------------------------------------------------------------------|
 Xxxxxxxx   xxxx     x xxxxxxxx   xxxx

Chorus 2 times
e|-----------------------------------------------------------------------------|
B|-----------------------------------------------------------------------------|
G|66666666-66666666-22222222---------------------------------------------------|
D|66666666-77777777-22222222-22-22-22------5 natural harmonic------------------|
A|44444444 55555555-44444444-22-22-22------------------------------------------|
E|-----------------------------------------------------------------------------|

mainriff
pre-chorus
Chorus 4 times


Bridge 2 times
e|------------0~---------------------------------------------------------------|
B|------------0~~--------------------------------------------------------------|
G|------------0~-----------------0~--------------------------------------------|
D|-------------------------------0~--------------------------------------------|
A|--2-5-2---2--------2---2-5-2---0~--------------------------------------------|
E|3-------3------------3-------3-2~--------------------------------------------|


Breakdown 4 times
e|-----------------------------------------------------------------------------|
B|-------------------------------------0-0—-6/-10101010------------------------|
G|-------------------------------------3-3-------------------------------------|
D|-----0-----0---0-0-----0----0--0-0--------4/-8-8-8-8-------------------------|
A|-----0-----0---0-0-----0----0--0-0-------------------------------------------|
E|-2h3---2h3---3-----2h3---2h3--3----------------------------------------------|

Outro several times  (2 guitars)
First guitar plays this
e|-----------------------------------------------------------------------------|
B|xxxxx6/-10101010-------------------------------------------------------------|
G|-----------------------------------------------------------------------------|
D|xxxxx4/-8-8-8-8--------------------------------------------------------------|
A|-----------------------------------------------------------------------------|
E|-----------------------------------------------------------------------------|

Second guitar plays bridge

This song is very hard to tab out but it sounds very close for me. Any questions,ask me 
writing an email madmax@gmx.at please rate!!
Booyaka!!
| /  slide up
| \  slide down
| h  hammer-on
| p  pull-off
| ~  vibrato
| +  harmonic
| x  Mute note
===============================================================================
Добавлено: 23.06.2012
Другие материалы по этой песне:
  • Аккорды и текст

Страница создана 04.05.2012
http://primanota.ru/converge/distance-and-meaning-chords.htm
Привет, Гость.
Предлагаем пройти революционный курс по гитаре.
Подарок от PrimaNota.Ru, забирай!