PrimaNota.ru - самый крупный в мире бесплатный архив песенных текстов, аккордов, табулатур и нот


Converge - Dead - текст песни, таба, видео

Регистрация Запомнить меня
Войти через:  Facebook Google Twitter Vk Yandex Mail.ru

Converge - Dead - текст песни, таба, видео

Печатать
Просмотров: 117
Artist: Converge
Title : Dead
Tabber: Aaron DeFoe (abandonlogic@hotmail.com)

Tuned down 1 whole step (DGCFAD)

Legend:
*  = 10th Fret
#  = 11th Fret
@  = 12th Fret
(#) = harmonic

 Intro>                             (guit. 1)
D|-------------------------------------------
A|-------0---------0--------0---------0------
F|o------4---------4--------4---------4------
C|o------5---------5--------5---------5------
G|-------3---------3--------3---------3------
D|--0---------0--------0---------0-----------

 Verse> 				     (guit. 1)
D|----------------------------------------------------
A|----------------------------------------------------
F|o-------------5--5-55-5-5---------------5--5-5-5/7-7
C|o-2--2-22-2-2-5--5-55-5-5-2--2-22-2-2-2-x--x-x-x-x-x
G|--2--2-22-2-2-3--3-33-3-3-2--2-22-2-2-2-3--3-3-3/5-5
D|--0--0-00-0-0-------------0--0-00-0-0-0-------------
						      } 2x
D|-----------------------------------------------------
A|-----------------------------------------------------
F|o-------------5--5-55-5-5----------------5--5-5-5/7-7
C|o-2--2-22-2-2-5--5-55-5-5-(4-4--4-4-555)-x--x-x-x-x-x
G|--2--2-22-2-2-3--3-33-3-3----------------3--3-3-3/5-5
D|--0--0-00-0-0----------------------------------------

  (x4)Part A (octave on 3rd and 5th strings) Guit.1
  7--7-77-7-7-7/9/*--*-*-**-*/@\5--5-55-5-5-7--9--*

                	G|-9h10p9-
			D|-------* (played after each part)

  (played after 2x of Part A)
  (x2)Part B (octave on 2nd and 4th strings) Guit.2
  5--5-55-5-5-5/7/9--9-99-9-9/*\7--7-77-7-7-5--7--7

			D|-7h8p7-
			A|------8

 Prechorus>
     Guitar 1	      Guit.2          1           2
D|-------------------|------|-------------------|---|
A|-------------------|------|-------------------|---|
F|o-4-4-4-4-4-4-4p0--|------|-4-4-4-4-4-4-4p0---|---|
C|o------------------|-2--2-|-------------------|-3-| 4x
G|-------------------|-2--2-|-------------------|-3-|
D|-------------------|-0--0-|-------------------|-1-|
  pm.............     ....   .............
 Chorus> "YOU, NEVER..."

D|-------------------------
A|-------------------------
F|o-999-99-----999-9-9-**** 8x
C|o-888-88-2-2-888-8-8-9999
G|--777-77-2-2-777-7-7/8888
D|---------0-0-------------
           pm.
Then play this after 4x of the above riff on Guit. 2
D|--------------------------------------------------
A|--@@@@@@@@@@@@############@@@@@@@@@@@@############ Riff F
F|o-xxxxxxxxxxxxxxxxxxxxxxxxxxxxxxxxxxxxxxxxxxxxxxxx
C|o-999999999999999999999999999999999999999999999999 4x
G|--------------------------------------------------
D|--------------------------------------------------

 Bridge>
D|--------------------------------
A|--------------------------------
F|o-----------3-3-3---------------
C|o-2-2-2-2-2-2-2-2-3-3-2-1--1-1-1
G|--2-2-2-2-2-2-2-2-3-3-2-1--1-1-1 4x
D|--0-0-0-0-0-0-0-0---------------
    pm.......       .....

D|----------------------------
A|----------------------------
F|o---------------------------
C|o---------------------------
G|--9------8------7-(55555555) 4x
D|--8-0000-7-0000-6-(55555555)

D|--------------------------------------------------------
A|--------------------------------------------------------
F|o---------------------------------------------76787678--
C|o---------------------------------------------76787678--
G|--9-----8-----7-222-2-2-2-2-2-2-9-----8-----7----------- 6x
D|--8-0-0-7-0-0-6-000-0-0-0-0-0-0-8-0-0-7-0-0-6-----------
      pm.   pm.   pm.............   ...   ...

 Ending>
D|-------------------
A|-------------------
F|o------------------
C|o-767876787678-2-2-
G|--545654565456-1-1- 2x
D|--545654565456-0-0-

Guit. 1 plays this part over guitar 2
D|-----------------------------------
A|-----------------------------------
F|o----------------------------------
C|o----------------------------------
G|--222-2-2-222-3-3-222-2-2-222-3-3-- 2x
D|--000-0-0-000-1-1-000-0-0-000-1-1--

Guit. 2 plays a variation of Riff F (look up) over this.



Date: Thu, 12 Dec 2002 00:49:01 EST
From: Iwasborn2killu@aol.com
Subject: c/converge/dead.tab

Song: Dead
Artist: Coverge

Tabbed by: Alien Shirin
e-mail: iwasborn2killu@aol.com
type "TAB" in subject line, otherwise i wont answer ya

ok i think u tune down ur guitar 2 whole steps one guitar goes:
*the A is a flat* ey im not sure i wrote the tuning right.
C|--------------------------------------------
F|-------0---------0--------0---------0------
D|-------4---------4--------4---------4------
A|-------5---------5--------5---------5------
F|-------3---------3--------3---------3------
C|--0---------0--------0---------0-----------

n that solo thing goes like this(im only trying, so if it aint great, 2 bad...this is my first time listening to this stuff):

C|----------------------------------------------------------------
F|-12/13/12--15--15/17/15--13--12/13/12------12/13/12-------------
D|---------------------------------------12-----------------------
A|----------------------------------------------------------------
F|----------------------------------------------------------------
C|----------------------------------------------------------------

C|----------------------------------------------------------------
F|----------------------------------------------------------------
D|--14-12---11/12/11--14--14/16/14--12-----11/12/11---------------
A|----------------------------------------------------------------
F|----------------------------------------------------------------
C|----------------------------------------------------------------

C|----------------------------------------------------------------
F|----------------------------------------------------------------
D|----------------------------11--11/12/11--14--12----------------
A|-14-12-10---9/10/9--12--14-----------------------12-------------
F|----------------------------------------------------------------
C|----------------------------------------------------------------

     
Добавлено: 16.08.2013
Другие материалы по этой песне:

Страница создана 23.05.2012
http://primanota.ru/converge/dead-chords.htm
Привет, Гость.
Предлагаем пройти революционный курс по гитаре.
Подарок от PrimaNota.Ru, забирай!