PrimaNota.ru - самый крупный в мире бесплатный архив песенных текстов, аккордов, табулатур и нот


Converge - Aimless Arrow - таба, видео

Регистрация Запомнить меня
Войти через:  Facebook Google Twitter Vk Yandex Mail.ru

Converge - Aimless Arrow - таба, видео

Печатать
Просмотров: 194
----------------------------------------------------------------------------------------
                           Aimless Arrow - Converge
----------------------------------------------------------------------------------------
Tabbed by: millarso (Jake Miller)
E-mail: millarso2.0@gmail.com

Tuning: Drop C (Dropped A string ½ Step)

TABBER'S NOTE: I realize this tuning might seem strange, but this is literally the only
way to play the dissonant chord the way that Ballou must play it. If you watch him in
live videos, he isn't stretching his hand for the dissonant chord at the 7th fret.

SECTION 1 (x2)
D |-----------------------------------------------------|
Ab|----------------------------------------7--p0--------|
F |----7--0--------7---5p0----7--0----0h7h8-----7p0-5p0-|
C |----------8--8-----8-------------8-------------------|
G |-----------------------------------------------------|
C |-7----------------------7----------------------------|
                                        
                                       1st Ending   2nd Ending
D |------------------------------------|-5--5--5-5-|-5--5--5-5--5--5--5-5-|
Ab|------------------------------------|-0--0--0-0-|-0--0--0-0--0--0--0-0-|
F |----7--0--------7---5p0----3----5p0-|-2--2--2-2-|-2--2--2-2--2--2--2-2-|
C |----------8--8-----8----------------|-----------|----------------------|
G |------------------------------------|(0)--------|----------------------|
C |-7----------------------3-----3-----|-----------|----------------------|

NOTE: Feel free to add that extra 0 to the dissonant chords if you want a little more
grit, but you will have to mute the high C string.
NOTE 2: It actually feels easier to me to play the low C string notes with my thumb.
It frees up more room and fingers, but I know some frown on that. If you watch some live
videos, it looks like Ballou might be using his thumb.

TRANISTION
D |--------------|
Ab|--------------|
F |-0------------|
C |-0-(let-ring)-|
G |-0------------|
C |-0------------|

SECTION 2
NOTE: Every note in this section is tapped. Try to mute any string that is not being
tapped as much as possible. Above each bar I will place an L or an R for left hand tap or
right hand tap. I suggest using your pointer and middle to tap the right hand.

     R    L    R  L  R L R    L    R  L  R L    R   L  R   L    R   L   R   L
D |---------------------------------------------------------------------------|
Ab|-16--------16----16--16--------16----16-----16-----16-------16-------------|
F |-15---12---15-12-151215---12---15-12-15-8---15---8-15---8---15---8--17\--8-|
C |---------------------------------------------------------------------------|x3
G |---------------------------------------------------------------------------|
C |---------------------------------------------------------------------------|

     R    L    R  L  R L R    L    R  L  R L    R   L  R   L    R   L   R
D |-------------------------------------------------------------------------|
Ab|-16--------16----16--16--------16----16-----16-----16-------16-----------|
F |-15---12---15-12-151215---12---15-12-15-8---15---8-15---8---15---8--17\--|
C |-------------------------------------------------------------------------|
G |-------------------------------------------------------------------------|
C |-------------------------------------------------------------------------|

SECTION 3 (Keep Tapping)
    L    R  L  R   L    R   L  R    L    R   L  R     L    R    L  R
D |---------------------------------------------------------------17-|
Ab|-----------21--------------21---------------16--------------------|
F |-8---20--8-20---8---20---8-20--8\7---15---7-15--7/10---17---10-17-|
C |-----20-------------20---------------15----------------17---------|
G |------------------------------------------------------------------|
C |------------------------------------------------------------------|

    L    R  L  R   L    R   L  R    L    R   L  R     L    R    L  R
D |-----------------------------------------------------------------|
Ab|-----21----21-------21-----21--------16-----16--------17------17-|
F |-8---20--8-20---8---20---8-20--8\7---15---7-15--7\5---17---10-17-|
C |-----------------------------------------------------------------|
G |-----------------------------------------------------------------|
C |-----------------------------------------------------------------|

    L    R   L  R   L    R   L  R    L    R   L  R     L    R    L  R
D |--------------------------------------------------------17------17-|
Ab|-----21-----21-------21-----21--------16-----16--------------------|
F |-8---20---8-20---8---20---8-20--8\7---15---7-15--7/10---17---10-17-|
C |-------------------------------------------------------------------|
G |-------------------------------------------------------------------|
C |-------------------------------------------------------------------|

    L    R   L  R   L    R   L  R    L    R   L  R L
D |------------------------------------------------------|
Ab|-----21-----21-------21-----21--------16-----16-------|
F |-8---20---8-20---8---20---8-20--8\7---15---7-15-7/5~--|
C |------------------------------------------------------|
G |------------------------------------------------------|
C |------------------------------------------------------|

REPEAT SECTION 2

REPEAT SECTION 3

REPEAT SECTION 1

SECTION 4 (Fast tremolo picking for both chords)
D |-5----6----|
Ab|-0----0----|
F |-2----3----|
C |-TP---TP---|x3
G |-----------|
C |-----------|

D |-5----5---5---5-5-|
Ab|-0----0---0---0-0-|
F |-2----2---2---2-2-|
C |-TP---------------|
G |------------------|
C |------------------|

SECTION 5
D |-5---5---5-5---5---5---5-5---5---5---5-5---5---5---6-6-5-|
Ab|-0---0---0-0---0---0---0-0---0---0---0-0---0---0---0-0-0-|
F |-2---2---2-2---2---2---2-2---2---2---2-2---2---2---3-3-2-|
C |---------------------------------------------------------|x2
G |---------------------------------------------------------|
C |---------------------------------------------------------|

SECTION 6
D |------------------------------|
Ab|------------------------------|
F |------------------------------|
C |-7---7---7-5-7-8---8---7-10-8-|x3
G |-7---7---7-5-7-8---8---7-10-8-|
C |-7---7---7-5-7-8---8---7-10-8-|

D |-------------5---5---5-5-|
Ab|-------------0---0---0-0-|
F |----3----5p0-2---2---2-2-|
C |-------------------------|
G |-------------------------|
C |-3-----3-----------------|

This tab was ridiculously hard for me to tab out because there is some weird technique
going on in this song. I hope it sounds good to you guys.
Please rate & comment (go easy on me, haha)
Thanks,
millarso

************************************

| /   slide up
| \   slide down
| h   hammer-on
| p   pull-off
| ~   vibrato
| +   harmonic
| x   Mute note
| b   Bend
| pb  Pre-bend
| br  Bend release
| pbr Pre-bend release
| brb Bend release bend

************************************
Добавлено: 10.11.2013
Другие материалы по этой песне:

Страница создана 10.11.2013
http://primanota.ru/converge/aimless-arrow-chords.htm
Привет, Гость.
Предлагаем пройти революционный курс по гитаре.
Подарок от PrimaNota.Ru, забирай!