PrimaNota.ru - самый крупный в мире бесплатный архив песенных текстов, аккордов, табулатур и нот


Control Denied - Believe - аккорды и текст, таба, видео

Регистрация Запомнить меня
Войти через:  Facebook Google Twitter Vk Yandex Mail.ru

Control Denied - Believe - аккорды и текст, таба, видео

Печатать
Просмотров: 133
Believe
Control Denied
Tuning = D (D,G,C,F,A,D)
 

Intro

|----------------------------------------|
|----------------------------------------|
|----------------------------------------|
|----------------------------------------|
|-----2----3-2----------2--------3-2-----|
|-0-0-0--------3----0-0-0----0-0-----3---|


Rhythm Fill 1
|-----------------------------------------|
|-----------------------------------------|
|-----------------------------------------|
|-----------------------------------------|
|-----2--------3-2----------2----------3--|
|-0-0-0----0-0-----3----0-0-0----0-0-0-1--|


Riff 1
|-----------------|-----------------|-----------------|-----------------|
|-----------------|-----------------|-----------------|-----------------|
|-----------------|-----------------|-----------------|-----------------|
|-----------------|-----------------|-----------------|-----------------|
|-----------------|-----------------|-----------------|-----------------|
|-4-4-4-4-4-4-4-4-|-4-4-4-4-4-4-4-4-|-3-3-3-3-3-3-3-3-|-3-3-3-3-3-3-3-3-|


Riff 2
|-----------------|-----------------|-----------------|-----------------|
|-----------------|-----------------|-----------------|-----------------|
|-----------------|-----------------|-----------------|-----------------|Gtr 1
|-----------------|-----------------|-----------------|-----------------|
|-7-6-------------|-7-6-------------|-2---------------|-2---------------|
|-----4-4-4-4-4-4-|-----4-4-4-4-4-4-|---3-0-0-0-0-0-0-|---3-0-0-0-0-0-0-|
|                 |                 |                 |                 |
|-----------------|-----------------|-----------------|-----------------|
|-----------------|-----------------|-----------------|-----------------|
|-8---------------|-8-------13------|-12--------------|-----------------|Gtr 2
|-----------------|-----------------|-----------------|-----------------|
|-6---------------|-6-------11------|-10--------------|-----------------|
|-----------------|-----------------|-----------------|-----------------|


|-----------------|-----------------|-----------------|-----------------|
|-----------------|-----------------|-----------------|-----------------|
|-----------------|-----------------|-----------------|-----------------|Gtr 1&2
|-----------------|-----------------|-----------------|-----------------|
|-7-6-------------|-7-6-------------|-2---------------|-2---------------|
|-----4-4-4-4-4-4-|-----4-4-4-4-4-4-|---3-0-0-0-0-0-0-|---3-0-0-0-0-0-0-|

Riff 3A
|----------|----------|----------|----------|
|----------|----------|----------|----------|
|----------|----------|----------|----------|
|-6--------|-----7----|-6--------|-7--------|
|-4--------|-----5----|-4--------|-5--------|
|----------|----------|----------|----------|

Riff 3B
|---------------------|---------------------|
|---------------------|---------------------|
|---------------------|---------------------|
|---------------------|---------------------|
|-4444-4444-4444-4444-|-4444-4444-5555-5555-|
|---------------------|---------------------|

|---------------------|---------------------|
|---------------------|---------------------|
|---------------------|---------------------|
|---------------------|---------------------|
|-4444-4444-4444-4444-|-5555-5555-5555-5555-|
|---------------------|---------------------|


Riff 4
|---------------------------|------------------------------------|
|---------------------------|------------------------------------|
|---------------------------|------------------------------------|
|-7-------------------------|-6----6-6-----6---6-----6---6-6---6-|
|-5---------7-7-6-6-4-4-6-6-|-4----4-4---444---4---444---4-4---4-|
|-----------5-5-4-4-2-2-4-4-|------------------------------------|


Riff 5
|---------|------------|--------|---------------|
|---------|------------|--------|---------------|
|---------|------------|--------|---------------|
|---------|---8-8-9-9--|--------|--8-8-9-9-8-8--|
|-6-------|---6-6-7-7--|-7------|--6-6-7-7-6-6--|
|-4-------|------------|-5------|---------------|


Riff 6
|----------|----------|-----------------|-----------------|
|----------|----------|-----------------|-----------------|
|----------|----------|-----------------|-----------------|
|----------|----------|-----------------|-----------------|
|-6--------|-5--------|-----------------|-----------------|
|-4--------|-3--------|-0-0-0-0-0-0-0-0-|-0-0-0-0-0-0-0-0-|

|------------|------------|-----------|-----------|
|------------|------------|-----------|-----------|
|------------|------------|-----------|-----------|
|------------|------------|-----------|-----------|
|-----6------|------6-----|-7---6-----|--7---6----|
|-4-------4--|--5------5--|--------7--|---------7-|


Riff 7
|-----------------------|
|-----------------------|
|-------????------------|
|-----------------------|
|-6-----------4----7-7--|
|-4-----------2----5-5--|


Rhythm Fill 2
|--------|
|--------|
|--------|
|--------|
|-7------|
|-5------|


Riff 8
|----------------------------|
|----------------------------|
|----------------------------|Gtr 1
|----------------------------|
|---7-----10--------7--10----|
|-5----------8----5-------8--|
|                   |
|----------------------------|
|----------------------------|
|---9-----12--------9--12----|Gtr 2
|-7----------10---7-------10-|
|----------------------------|
|----------------------------|


Riff 9
|----------------|-----------------|----------------|-----------------|
|----------------|-----------------|----------------|-----------------|
|----------------|-----------------|----------------|-----------------|
|-8-8-8--8-8-8---|-----------------|-8-8-8--8-8-8---|-----------------|
|-6-6-6--6-6-6---|-----------------|-6-6-6--6-6-6---|-----------------|
|--------------4-|-4-4-4-4-4-4-4-4-|--------------5-|-5-5-5-5-5-5-5-5-|

|----------------|-----------------|----------------|-----------------|
|----------------|-----------------|----------------|-----------------|
|----------------|-----------------|----------------|-----------------|
|-8-8-8--8-8-8---|-----------------|-8-8-8--8-8-8---|-----------------|
|-6-6-6--6-6-6---|-----------------|-6-6-6--6-6-6---|-----------------|
|--------------2-|-2-2-2-2-2-2-2-2-|--------------5-|-5-5-5-5-5-5-5-5-|


Riff 10
|-----------------|------------------|-----------------|------------------|
|-----------------|------------------|-----------------|------------------|
|-----------------|------------------|-----------------|------------------|
|-----------------|-----7---9-7------|-----------------|-----7---9-7------|
|-----------------|---7---7--------7-|-----------------|---7---7--------7-|
|-0-0-0-0-0-0-0-0-|-0-----------10---|-0-0-0-0-0-0-0-0-|-0-----------10---|
|                 |         |                 |         |
|-----------------|------------------|-----------------|------------------|
|-----------------|------------------|-----------------|------------------|
|-----------------|------------------|-----------------|------------------|
|-----------------|------------------|-----------------|------------------|
|-----------------|------------------|--5h7-7----------|------------------|
|-----------------|------------------|-----------------|------------------|


|-----------------|------------------|-----------------|------------------|
|-----------------|------------------|-----------------|------------------|
|-----------------|------------------|-----------------|------------------|
|-----------------|-----7---9-7------|-----------------|-----7---9-7------|
|-----------------|---7---7--------7-|-----------------|---7---7--------7-|
|-0-0-0-0-0-0-0-0-|-0-----------10---|-0-0-0-0-0-0-0-0-|-0-----------10---|
|                 |         |                 |         |
|-----------------|------------------|-----------------|------------------|
|-----------------|------------------|-----------------|------------------|
|-----------------|------------------|-----------------|------------------|
|-----------------|------------------|--9-7------------|------------------|
|--75-5/10-109--|------------------|------10-9-7-10--|------------------|
|-----------------|------------------|-----------------|------------------|
Добавлено: 29.10.2013
Вам также может быть интересно:
Другие материалы по этой песне:
  • Аккорды и текст

Страница создана 09.03.2012
http://primanota.ru/control-denied/believe-chords.htm
Привет, Гость.
Предлагаем пройти революционный курс по гитаре.
Подарок от PrimaNota.Ru, забирай!