PrimaNota.ru - самый крупный в мире бесплатный архив песенных текстов, аккордов, табулатур и нот


Continents - Inhale - таба, видео

Регистрация Запомнить меня
Войти через:  Facebook Google Twitter Vk Yandex Mail.ru

Continents - Inhale - таба, видео

Печатать
Просмотров: 83
Уроки эстрадного вокала в Санкт-Петербурге
(0:00)

C |--------------------------------------------------------------------------|
G |--------------------------------------------------------------------------|
D#|--------------------------------------------------------------------------|
A#|--------------------------------------------------------------------------|
F |---------------------------------5----------------------------------------|
A#|2--2--2-2--2h3p2-0--2--2--2-2--0---3--2--2--2-2--2h3p2-0--2--2--2-00-00-3-|
                                                                     .  .

There's a little skip after the first repetition but it's easy to work out

(0:27)

C |-----------------------------------------------------------------------|
G |-----------------------------------------------------------------------|
D#|-----------------------------------------------------------------------|
A#|----------2-1-2-----2--1-----------2--1--2---2-1-2-----2--1------------|
F |----------2-1-2-----2--1------5----2--1--2---2-1-2-----2--1------------|
A#|2--1--2---2-1-2--0--2--1--0-2---1--2--1--2---2-1-2--0--2--1--00-00-00--|
                                                                .. .. ..

C |-----------------------------------------------------------------------|
G |-----------------------------------------------------------------------|
D#|-----------------------------------------------------------------------|
A#|----------2-1-2-----2--1-----------2--1--2---2-1-2-----2--1------------|
F |----------2-1-2-----2--1------3----2--1--2---2-1-2-----2--1------------|
A#|2--1--2---2-1-2--0--2--1--0-1---0--2--1--2---2-1-2--0--2--1--00-00-00--|
                                                                .. .. ..

*Snare fill*
(0:41)

C |---------------------------------------------|
G |---------------------------------------------|
D#|---------------------------------------------|
A#|00---00---0000--00--00--00--0---000-0---0000-|
F |00---00---0000--00--00--00--0---000-0---0000-|
A#|00---00---0000--00--00--00--0---000-0---0000-|
   ..   ..   ....  ..  ..  ..  .   ... .   ....

Repeat that 4 times, then the rhymth drops to just the open bottom string
Lead plays these notes over the top, you can work out the pattern

(0:55)

C |15-----------                                                  12---------|
G |----13-------                                                  ----13-----|
D#|--------10--- and then from 1:12 onwards that alternates with  --------10-|
A#|-------------                                                  -----------|
F |-------------                                                  -----------|
A#|-------------                                                  -----------|

That lead pattern continues up to 1:52, underneath it the rhythm plays this

C |-------------------------------------|
G |-------------------------------------|
D#|-------------------------------------|
A#|3--3-3--3-3----5--5-5--5-5----5/7--7-|
F |3--3-3--3-3----5--5-5--5-5----5/7--7-|
A#|3--3-3--3-3----5--5-5--5-5----5/7--7-|
      .    .         .    .

A few extra notes are added when it picks up at 1:28, but they're easy to hear

(1:52)

Rhythm

C |-------------|
G |-------------|
D#|-------------|
A#|7---10---3---|
F |7---10---3---|
A#|7---10---3---|

Lead

C |-------------|
G |-------------|
D#|14---16---17-|
A#|-------------|
F |12---14---15-|
A#|-------------|

(2:20) - both guitars


C |----------------|
G |----------------|
D#|----------------|
A#|5--0-5--0-0-----|
F |5--0-5--0-0-----|
A#|5--0-5--0-0-----|
      .    .

(2:48)

C |-------------------------------------|
G |----------------4-4--------------4-7-|
D#|----------------7-7--------------4-7-|
A#|0---0-0-0-0-0-0------0-0-0-0-0-0-----|
F |0---0-0-0-0-0-0------0-0-0-0-0-0-----|
A#|0---0-0-0-0-0-0------0-0-0-0-0-0-----| ...and so on.

C |--------------------------------0------------|
G |--------------------------------0------------|
D#|--------------------------------0------------|
A#|0---0-0-0-0-0-0-0-0-0-0-0-0-0-0------0-0-0-0-|
F |0---0-0-0-0-0-0-0-0-0-0-0-0-0-0------0-0-0-0-|
A#|1---1-1-1-1-1-1-1-1-1-1-1-1-1-1------1-1-1-1-|

then the little build up at 3:12 is just palm muted opens,
and after "It's time to rise above!" it drops back into...

C |----------------------------------------------------------------|
G |----------------------------------------------------------------|
D#|----------------------------------------------------------------|
A#|---2-1-2-----2--1-----------2--1--2---2-1-2-----2--1------------|
F |---2-1-2-----2--1------5----2--1--2---2-1-2-----2--1------------|
A#|---2-1-2--0--2--1--0-2---1--2--1--2---2-1-2--0--2--1--00-00-00--|
                                                         .. .. ..

C |-----------------------------------------------------------------------|
G |-----------------------------------------------------------------------|
D#|-----------------------------------------------------------------------|
A#|2--1--2---2-1-2-----2--1-----------2--1--2---2-1-2-----2--1------------|
F |2--1--2---2-1-2-----2--1------3----2--1--2---2-1-2-----2--1------------|
A#|2--1--2---2-1-2--0--2--1--0-1---0--2--1--2---2-1-2--0--2--1--00-00-00--|
                                                                .. .. ..
Добавлено: 13.09.2013
Вам также может быть интересно:
Другие материалы по этой песне:
  • Аккорды и текст

Страница создана 13.09.2013
http://primanota.ru/continents/inhale-chords.htm
Привет, Гость.
Предлагаем пройти революционный курс по гитаре.
Подарок от PrimaNota.Ru, забирай!