PrimaNota.ru - самый крупный в мире бесплатный архив песенных текстов, аккордов, табулатур и нот


Continents - Idle Hands - таба, бас-таба, видео

Регистрация Запомнить меня
Войти через:  Facebook Google Twitter Vk Yandex Mail.ru

Continents - Idle Hands - таба, бас-таба, видео

Печатать
Просмотров: 92
Guitars pan with sample to begin (left then right)

C |---------------------------|
G |---------------------------|
D#|---------------------------|
A#|---------------------------|
F |-0000000------0000000------|
A#|10000000-----10000000------|
   ^.......     ^.......

(0:01 whole band) - I've....

C |----------1----------------|
G |----------1----------------|
D#|---------------------------|
A#|----------------3----------|
F |-0000000----3---4-5--------|
A#|10000000----3-0---5-0------|
   ^.......

C |---------------------------------|
G |-----------4---4-4---------------|
D#|-----------7---7-7---------------|
A#|---------------------3-----2-----|
F |-000000--------------------------|
A#|1000000-0----0-----0---0-1-------|
   ^......      .     .

Repeat these two sections

(0:14 - solo guitar first then full band)

C |--------------|
G |--------------|
D#|--------------|
A#|3-----2-------|
F |--------------|
A#|--0-1---1-0---|
                

C |--------------------5*-----|
G |--------------------5*-----|
D#|--------------------5*-----|
A#|3-----2--------------------|
F |---------------------------|
A#|--0-1---1-0--0000----------| (*natural harmonic)
                ....
(0:17)

C |--------------------------------|
G |--------------------------------|
D#|--------------------------------|
A#|3-----2-----2-----2-------------| (play twice)
F |------------------------2-------|
A#|--0-1---1-0---4-1---1-0---4-0-1-|

(0:24)

C |--------------------------------|
G |--------------------------------|
D#|--------------------------------|
A#|2-----2-----2-----2-----2-2-1-1-| (play twice)
F |2-111-2-111-2-111-2-111-2-2-1-1-|
A#|--111---111---111---111---------|
     ...   ...   ...   ...

(0:30)

C |--------------------------------|
G |--------------------------------|
D#|--------------------------------|
A#|3-----2-----2-----2-------------| (play twice)
F |------------------------2-------|
A#|--0-1---1-0---4-1---1-0---4-0-1-|



C |-----------------|
G |-----------------|
D#|-----------------|
A#|-----------------|
F |-----------------|
A#|000-000--------0-|
   ... ...

Next notes are just opens on the bottom string.
Chord between the opens is

C |--0---|
G |--0---|
D#|--5---|
A#|------|
F |------|
A#|------|
   

(1:00)

C |------------------------------------------------|
G |------------------------------------------------|
D#|------------------------------------------------|
A#|3-----2-----1>2-222222222222225-5555553-333-555-|
F |------------1>2-222222222222225-5555553-333-333-|
A#|--0-1---1-0-1>2-222222222222225-5555553-333-----|


C |-------------------------------------|
G |-------------------------------------|
D#|-------------------------------------|
A#|2-222222222222225-5555553-333-222----|
F |2-222222222222225-5555553-333-222----|
A#|2-222222222222225-5555553-333-222----|
                                 ...

C |-------------------------------------|
G |-------------------------------------|
D#|-------------------------------------|
A#|2-222222222222225-5555553-333-555----|
F |2-222222222222225-5555553-333-333----|
A#|2-222222222222225-5555553-333--------|

C |-------------------------------------|
G |-------------------------------------|
D#|-------------------------------------|
A#|2-222222222222225-5555553-333-555----|
F |2-222222222222225-5555553-333-555----|
A#|2-222222222222225-5555553-333-555----|
                                 ...

C |-------------------------------------|
G |-------------------------------------|
D#|-------------------------------------|
A#|2-22-222-222-2222-22-222-5555-333----| (play twice)
F |2-22-222-222-2222-22-222-5555-333----|
A#|2-22-222-222-2222-22-222-5555-333----|
     .  ..  ..  ...  .  ..  

C |-------------------------------------|
G |-------------------------------------|
D#|-------------------------------------|
A#|3-33-3-3-3-3-3-3-3-------------------|
F |3-33-3-3-3-3-3-3-3-------------------|
A#|3-33-3-3-3-3-3-3-3-------------------|

(guitars pan without the bass)

C |----------------|
G |----------------|
D#|----------------|
A#|------2-------1-|
F |0-1-0-2-0-1-0-1-|
A#|0-1-0---0-1-0---|
   . . .   . . .

(1:42)

C |---------------------------------|
G |---------------------------------|
D#|---------------------------------|
A#|2-----2-----------2-----2-2-1-1--| (play twice)
F |2-0-1-2-1-0-1-0-1-2-1-0-2-2-1-1--|
A#|--0-1---1-0-1-0-1---1-0----------|
     . .   . . . . .   . .

C |---------------------------------|
G |---------------------------------|
D#|---------------------------------|
A#|000000-----000000-----00---00----|
F |000000-----000000-----00---00----|
A#|000000-----000000-----00---00----|
   ......     ......     ..   ..

"OR DO YOU EVEN EXIST!?"

C |--------------|
G |--------------|
D#|--------------| (then just add a couple of
A#|-------4-3~---|  open bottom strings every other)
F |0-1-0--2-1~---|
A#|0-1-0---------|
     . .

(2:30)
"...you made us believe"


C |----------------------------------------------------------------|
G |----------------------------------------------------------------|
D#|----------------------------------------------------------------|
A#|0-0-0-0-0-0-0-0-0-0-0-0-0-000-000-0-0-0-0-0-0-0-0--6-6-6--------|
F |0-0-0-0-0-0-0-0-0-0-0-0-0-000-000-0-0-0-0-0-0-0-0--4-4-4--1-1-1-|
A#|0-0-0-0-0-0-0-0-0-0-0-0-0-000-000-0-0-0-0-0-0-0-0---------1-1-1-|
   . . . . . . . . . . . . . ... ... . . . . . . . .

C |----------------------------------------------------------------|
G |----------------------------------------------------------------|
D#|----------------------------------------------------------------|
A#|----0---0-0-0-0-0-0-0-0-0-000-000-0-0-0-0-0-0-0-0--6-6-6--------|
F |--3---3-0-0-0-0-0-0-0-0-0-000-000-0-0-0-0-0-0-0-0--4-4-4--1-1-1-|
A#|4-------0-0-0-0-0-0-0-0-0-000-000-0-0-0-0-0-0-0-0---------1-1-1-|
           . . . . . . . . . ... ... . . . . . . . .

Play these two sections twice.

(3:02 - 3:12)

C |--0---|
G |--0---|
D#|--5---|  (then there's a cheeky bend on the second fret)
A#|------| 
F |------|
A#|------|

Then repeat the section from 0:38 - Open notes with the dischord between

3:37 - solo guitar, 

C |-------------------------------------------|
G |-------------------------------------------|
D#|------------5-555555555555555555555555555--|
A#|3-----2-----4-444444444444444444444444444--|
F |------------3-333333333333333333333333333--|
A#|--0-1---1-0--------------------------------|

full band comes in at 3:42

C |-------------------------------------------|
G |-------------------------------------------|
D#|------------------555555555555555555555555-|
A#|--1--------000000-444444444444444444444444-|
F |-----------000000-333333333333333333333333-|
A#|0---4-1-0--000000--------------------------|
         ^    ......

C |------------------------------------------------|
G |------------------------------------------------|
D#|---------5555555555555555-----------------------|
A#|00000000-4444444444444444-1111---2--------------|
F |00000000-3333333333333333-1111------------------|
A#|00000000------------------1111-1---4-1-0--------|
   ........                             ^


Guitar left plays a harmony of the dischord at the end but I'm not sure what it is
it's just a standard power chord somewhere up around the 10th fret
Добавлено: 16.02.2014
Другие материалы по этой песне:
  • Аккорды и текст

Страница создана 28.07.2013
http://primanota.ru/continents/idle-hands-chords.htm
Привет, Гость.
Предлагаем пройти революционный курс по гитаре.
Подарок от PrimaNota.Ru, забирай!