PrimaNota.ru - самый крупный в мире бесплатный архив песенных текстов, аккордов, табулатур и нот


Continents - 224 - бас-таба, видео

Регистрация Запомнить меня
Войти через:  Facebook Google Twitter Vk Yandex Mail.ru

Continents - 224 - бас-таба, видео

Печатать
Просмотров: 81
May the bridges we burn, light our way...

D#|---------------------------|
A#|---------------------------|   (play twice)
F |---------6-3---------------|
A#|3-33333------4-4-4-4-4-4-4-|
     ....

D#|---------------------------|
A#|---------------------------|   (alteration on
F |---------6-3---------------|  third repetition)
A#|6-3-33-------4-4-4-4-4-4-4-|
       ..

D#|---------------------------|
A#|---------------------------|
F |---------6-3---------------|
A#|3-33333------4-4-4-4-4-4-4-|
     ....

(0:46)
D#|---------------------------|
A#|---------------------------|
F |---------------------------|
A#|4-33333--33--33--33333-----|
     ....   .   .   ....

D#|---------------------------|
A#|---------------------------|
F |---------------------------|
A#|4-33333--33--33--6-6-3-3---|
     ....   .   .

D#|---------------------------|
A#|---------------------------|
F |---------------------------|
A#|4-33333--33--33--33333-----|
     ....   .   .   ....

D#|----------------------------|
A#|----------------------------|
F |----------------------------|
A#|4-33333--33--33--3-4-3-6-33-|
     ....   .   .           ..
Добавлено: 10.06.2013
Другие материалы по этой песне:
  • Аккорды и текст

Страница создана 10.06.2013
http://primanota.ru/continents/224-chords.htm
Привет, Гость.
Предлагаем пройти революционный курс по гитаре.
Подарок от PrimaNota.Ru, забирай!