PrimaNota.ru - самый крупный в мире бесплатный архив песенных текстов, аккордов, табулатур и нот


Contagio - Requiem For The Undead - бас-таба, видео

Регистрация Запомнить меня
Войти через:  Facebook Google Twitter Vk Yandex Mail.ru

Contagio - Requiem For The Undead - бас-таба, видео

Печатать
Просмотров: 79
BASS TAB
CONTAGIO - REQUIEM FOR THE UNDEAD
Tuning: 4 String Bass - B Standard (BEAD)


INTRO:

D|------|------|
A|------|------|
E|------|------|   x4
B|--0---|--0---|


PRE.VERSE:

D|-----------------------------|
A|-----------------------------|
E|--3---------2----------------|   x3
B|----0-0-0-0---0-0-0--0-0-0-0-|

D|---------------------------|
A|---------------------------|
E|---------------------------|
B|--3-3-3-3--5-5-5-5--0------|


VERSE:

D|-----------------------------|          |
A|-----------------------------|          |
E|--3---------2----------------|   x3     |
B|----0-0-0-0---0-0-0--0-0-0-0-|          |
                                          |  x4
D|--------------------|                   |
A|--------------------|                   |
E|--------------------|                   |
B|--3-3-3-3--5-5-5-5--|                   |


CHORUS:

D|----------------------------|----------------------------|
A|---------------2------------|-----------4---2------------|
E|-2---0-2-4-5-----5-4---5-4--|-2---0-2-4-------5-4---5-4--|
B|----------------------------|----------------------------|


BRIDGE:

D|----------------------------------------------------------|
A|----------------------------------8-----8----7-----7------|
E|----------------------------------------------------------|
B|--0-0-0-0-0-0-0-0-0-0-0-0-0-0-0-0---0-0---0-0---0-0---0-0-|

D|----------------------------------------------------------|
A|----------------------------------6-----6----7-----7------|
E|----------------------------------------------------------|
B|--0-0-0-0-0-0-0-0-0-0-0-0-0-0-0-0---0-0---0-0---0-0---0-0-|


Follow the song for structure and stops.

Tabbed by Serj Lundgren (Contagio, Brvmak, Oni Possession)
Добавлено: 02.12.2015
Другие материалы по этой песне:
  • Аккорды и текст

Страница создана 02.12.2015
http://primanota.ru/contagio/requiem-for-undead-chords.htm
Привет, Гость.
Предлагаем пройти революционный курс по гитаре.
Подарок от PrimaNota.Ru, забирай!