PrimaNota.ru - самый крупный в мире бесплатный архив песенных текстов, аккордов, табулатур и нот


Contagio - Blood Trail - бас-таба, видео

Регистрация Запомнить меня
Войти через:  Facebook Google Twitter Vk Yandex Mail.ru

Contagio - Blood Trail - бас-таба, видео

Печатать
Просмотров: 68
BASS TAB
CONTAGIO - BLOOD TRAIL
Tuning: 4 String Bass - B Standard (BEAD)


D|--------------------------------------------
A|--------------------------------------------
E|--------------------------------------------
B|--------------------------------------------


INTRO:

D|----------9-9-9-9---------9-9-9-9---------9-9-9-9---------9-9-9-9-|
A|----------7-7-7-7---------7-7-7-7---------7-7-7-7---------7-7-7-7-|
E|------------------------------------------------------------------|
B|--0-0-0-0---------0-0-0-0---------0-0-0-0---------0-0-0-0---------|

D|----------8-8-8-8---------8-8-8-8---------8-8-8-8---------8-8-8-8-|
A|----------7-7-7-7---------7-7-7-7---------7-7-7-7---------7-7-7-7-|
E|------------------------------------------------------------------|
B|--0-0-0-0---------0-0-0-0---------0-0-0-0---------0-0-0-0---------|


PRE.VERSE (Black Part):

D|--------------------------------------------------------------------|
A|--------------------------------------------------------------------|
E|--0-0-0-0-0-0-0-0-0-0-0-0--2-2-2-2--3-3-3-3-3-3-3-3-3-3-3-3-3-3-3-3-|
B|--------------------------------------------------------------------|

D|----------------------------------------------------------------------------------------------------|
A|----------------------------------------------------------------------------------------------------|
E|-12-12-12-12-12-12-12-12--11-11-11-11-11-11-11-11--14-14-14-14-14-14-14-14--15-15-15-15-15-15-15-15-|
B|----------------------------------------------------------------------------------------------------|

D|--------------------------------------------------------------------|
A|--------------------------------------------------------------------|
E|--0-0-0-0-0-0-0-0-0-0-0-0--0-0-2-2--3-3-3-3-3-3-3-3-3-3-3-3-3-3-3-3-|
B|--------------------------------------------------------------------|

D|----------------------------------------------------------------------------------------------------|
A|----------------------------------------------------------------------------------------------------|
E|-12-12-12-12-12-12-12-12--11-11-11-11-11-11-11-11--14-14-14-14-14-14-14-14--12-12-12-12-12-12-12-12-|
B|----------------------------------------------------------------------------------------------------|


VERSE:

D|----------------|----------------|      |    
A|----------------|----------------|      |    
E|----------------|----------------|      |
B|--0--5-4--3-4-5-|--0--7-6--5-6-7-|      |    
                                          |
D|----------------|------------------|    |     
A|----------------|------------------|    |     
E|----------------|--7-5-3---5-3-----|    | 
B|--0--5-4--3-4-5-|--------7-----7-5-|    |
                                          |   x2
D|----------------|----------------|      |   
A|----------------|----------------|      |    
E|----------------|----------------|      |
B|--0--5-4--3-4-5-|--0--7-6--5-6-7-|      |    
                                          | 
D|----------------|-------------------|   |       
A|----------------|------------6-5-7--|   |       
E|----------------|--7-5-3-5-7--------|   |  
B|--0--5-4--3-4-5-|-------------------|   |               


CHORUS:

D|------------------------------------------------------------|
A|------------------------------------------------------------|
E|--3--3-3--3-3--3-3-3-3-5-5-5-5------------------------------|
B|-------------------------------5--5-5--5-5--5-5-5-5-5-5-5-5-|

D|------------------------|------------------------|
A|------------------------|------------------------|
E|------------------------|------------------------|
B|-0--2-2-2--3-3--5-3/--0-|-0--2-2-2--3-3--5-3/--0-|


OUTRO (Black Slow):

D|----------|----------------|--------|----------------|
A|----------|----------------|--------|----------------|
E|-0---2--3-|-12--11--14--15-|-0--2-3-|-12--11--14--12-|
B|----------|----------------|--------|----------------|

D|----------|----------------|--------|
A|----------|----------------|--------|
E|-0---2--3-|-12--11--14--15-|-0--2-3-|
B|----------|----------------|--------|

D|--------------------------------------------------------------------------------||
A|--------------------------------------------------------------------------------||
E|-12-12-12-12-12-12-12-12--11-11-11-11-11-11-11-11--14-14-14-14-14-14-14-14--12--||
B|--------------------------------------------------------------------------------||


Follow the song for structure and stops.

Tabbed by Serj Lundgren (Contagio, Brvmak, Oni Possession)
Добавлено: 02.12.2015
Вам также может быть интересно:
Другие материалы по этой песне:
  • Аккорды и текст

Страница создана 02.12.2015
http://primanota.ru/contagio/blood-trail-chords.htm
Привет, Гость.
Предлагаем пройти революционный курс по гитаре.
Подарок от PrimaNota.Ru, забирай!