PrimaNota.ru - самый крупный в мире бесплатный архив песенных текстов, аккордов, табулатур и нот


Constellation - Forever Seemed To Long - аккорды и текст, таба, видео

Регистрация Запомнить меня
Войти через:  Facebook Google Twitter Vk Yandex Mail.ru

Constellation - Forever Seemed To Long - аккорды и текст, таба, видео

Печатать
Просмотров: 97
Forever Seemed To Long
Constellation
----------------------------------------------------------------------
		 Forever Seemed To Long - Constellation
----------------------------------------------------------------------
 
By: m1j0y3korn@aol.com

let ring = ~

Intro
e|-----------------------------------------------------------|
B|--------0--------------------------------------------------|
G|------2---2-----------0-------------0-------------0--------|
D|----2-------2---2---0---0-0-0-----0---0-0-0-----0---0-0-0--|
A|--0-----------0---2-----------2h3-----------3p2------------|
E|-----------------------------------------------------------|

e|-------------------------------------------------------------|
B|------0------------------------------------------------------|
G|--------0-------------0-------------0-------------0----------|
D|----2-----2---0-----0---0-0-0-----0---0-0-0-----0---0-0-0-0--|
A|--0---------0---0-2-----------2h3-----------3p2--------------|
E|-------------------------------------------------------------|

e|-----------------------------------------------------------|
B|------0----------------------------------------------------|
G|--------2-----2-------0-------------0-------------0--------|
D|----2-----2-----2---0---0-0-0-----0---0-0-0-----0---0-0-0--|
A|--0---------0-----2-----------2h3-----------3p2------------|
E|-----------------------------------------------------------|

e|-------------------------------------------------|
B|------0------------------------------------------|
G|--------2-----2-------0-------------0------------|
D|----2-----2-----2---0---0-0-0-----0---0-0-0------|
A|--0---------0-----2-----------2h3-----------3p2~-|
E|-------------------------------------------------|

Verse
e|------------------------------------------|
B|--0000000000-000000000-00000000000000000--|
G|--2222222222-000000000-00000000000000000--|
D|--2222222222-222222222-00000000000000000--|
A|--0000000000-333333333-22222222222222222--|
E|------------------------------------------|

e|--0000000000-----33333-----3333------------------|
B|--0000000000-000033333-00003333-3---3---3---3----|
G|--2222222222-000000000-00000000---2---2---2---0--|
D|--2222222222-222222222-00000000------------------|
A|--0000000000-333333333-22222222------------------|
E|-------------------------------------------------|

Chorus
e|--0000000000-----33333-----3333-00000000--|
B|--0000000000-000033333-00003333-33333333--|
G|--2222222222-000000000-00000000-22222222--|
D|--2222222222-222222222-00000000-00000000--|
A|--0000000000-333333333-22222222-00000000--|
E|------------------------------------------|

e|--0000000000-----33333-----3333-00000000--|
B|--0000000000-000033333-00003333-33333333--|
G|--2222222222-000000000-00000000-22222222--|
D|--2222222222-222222222-00000000-00000000--|
A|--0000000000-333333333-22222222-00000000--|
E|------------------------------------------|

e|--------------------------------00000000--|
B|--000000000-0000000000-00000000-33333333--|
G|--222222222-0000000000-00000000-22222222--|
D|--222222222-2222222222-00000000-00000000--|
A|--000000000-3333333333-22222222-00000000--|
E|-----------------------33333333-----------|

e|------------------------------------------|
B|--000000000-0000000000-33333333-00000000--|
G|--222222222-0000000000-22222222-00000000--|
D|--222222222-2222222222-00000000-00000000--|
A|--000000000-3333333333-00000000-22222222--|
E|--------------------------------33333333--|

Verse
e|------------------------------------------|
B|--0000000000-000000000-00000000000000000--|
G|--2222222222-000000000-00000000000000000--|
D|--2222222222-222222222-00000000000000000--|
A|--0000000000-333333333-22222222222222222--|
E|------------------------------------------|

e|--0000000000-----33333-----3333------------------|
B|--0000000000-000033333-00003333-3---3---3---3----|
G|--2222222222-000000000-00000000---2---2---2---0--|
D|--2222222222-222222222-00000000------------------|
A|--0000000000-333333333-22222222------------------|
E|-------------------------------------------------|

Chorus
e|--0000000000-----33333-----3333-00000000--|
B|--0000000000-000033333-00003333-33333333--|
G|--2222222222-000000000-00000000-22222222--|
D|--2222222222-222222222-00000000-00000000--|
A|--0000000000-333333333-22222222-00000000--|
E|------------------------------------------|

e|--0000000000-----33333-----3333-00000000--|
B|--0000000000-000033333-00003333-33333333--|
G|--2222222222-000000000-00000000-22222222--|
D|--2222222222-222222222-00000000-00000000--|
A|--0000000000-333333333-22222222-00000000--|
E|------------------------------------------|

e|--------------------------------00000000--|
B|--000000000-0000000000-00000000-33333333--|
G|--222222222-0000000000-00000000-22222222--|
D|--222222222-2222222222-00000000-00000000--|
A|--000000000-3333333333-22222222-00000000--|
E|-----------------------33333333-----------|

e|------------------------------------------|
B|--000000000-0000000000-33333333-00000000--|
G|--222222222-0000000000-22222222-00000000--|
D|--222222222-2222222222-00000000-00000000--|
A|--000000000-3333333333-00000000-22222222--|
E|--------------------------------33333333--|

Breakdown
e|------------------------------------|
B|-------3------3------3------3---3---|
G|-----2------0------0------2---2---2-|
D|---2------2------0------0-----------|
A|-0------3------2------0-------------| x2
E|------------------------------------|

e|-----------------------------------------------------------|
B|-------3-------------3-------------3-------------3-------3-|
G|-----2---2---2-----0---0---0-----0---0---0-----2---2---2---|
D|---2-------2-----2-------2-----0-------0-----0-------0-----|
A|-0-------------3-------------2-------------0---------------| x2
E|-----------------------------------------------------------|

Chorus
e|--0000000000-----33333-----3333-00000000--|
B|--0000000000-000033333-00003333-33333333--|
G|--2222222222-000000000-00000000-22222222--|
D|--2222222222-222222222-00000000-00000000--|
A|--0000000000-333333333-22222222-00000000--|
E|------------------------------------------|

e|--0000000000-----33333-----3333-00000000--|
B|--0000000000-000033333-00003333-33333333--|
G|--2222222222-000000000-00000000-22222222--|
D|--2222222222-222222222-00000000-00000000--|
A|--0000000000-333333333-22222222-00000000--|
E|------------------------------------------|

e|--------------------------------00000000--|
B|--000000000-0000000000-00000000-33333333--|
G|--222222222-0000000000-00000000-22222222--|
D|--222222222-2222222222-00000000-00000000--|
A|--000000000-3333333333-22222222-00000000--|
E|-----------------------33333333-----------|

e|------------------------------------------|
B|--000000000-0000000000-33333333-00000000--|
G|--222222222-0000000000-22222222-00000000--|
D|--222222222-2222222222-00000000-00000000--|
A|--000000000-3333333333-00000000-22222222--|
E|--------------------------------33333333--|

Outro
e|-------------------------------------------------------------------|
B|--------3-3-----3-------3-3-----3-------3-3-----3-------3-3-----3--|
G|------2---2---2-------0---0---0-------0---0---0-------2---2---2----|
D|----2-------2-------2-------2-------0-------0-------0-------0------|
A|--0---------------3---------------2---------------0----------------|
E|-------------------------------------------------------------------|

e|----------------------------------------------------2----3-0-2--|
B|--------3-3-----3-------3-3-----3-------3-3-----3---3----3-3-3--|
G|------2---2---2-------0---0---0-------0---0---0-----2----2-2-2--|
D|----2-------2-------2-------2-------0-------0-------0----0-0-0--|
A|--0---------------3---------------2-----------------0----0-0-0--|
E|----------------------------------------------------------------|

====
Добавлено: 26.12.2013
Другие материалы по этой песне:
  • Аккорды и текст

Страница создана 26.03.2012
http://primanota.ru/constellation/forever-seemed-to-long-chords.htm
Привет, Гость.
Предлагаем пройти революционный курс по гитаре.
Подарок от PrimaNota.Ru, забирай!