PrimaNota.ru - самый крупный в мире бесплатный архив песенных текстов, аккордов, табулатур и нот


Connie Lynch - Roxanne - таба, видео

Регистрация Запомнить меня
Войти через:  Facebook Google Twitter Vk Yandex Mail.ru

Connie Lynch - Roxanne - таба, видео

Печатать
Просмотров: 109
Уроки эстрадного вокала в Санкт-Петербурге
This version is barely known, although it's at least as great as dilana smith's.... 
it out on her homepage (myspace)

Verse/Intro:
     Em         Em/D        Cmaj7     Bm          Am           Dsus4 D
e|----------0---------------------0---------------------0----------3-2-|
B|--------0-----------3---------0-----------3---------1----------3-----|
G|------0-----------2---------0-----------4---------2----------2-------|
D|----------------0---------------------4--------------------0---------|
A|----7---------5----------3----------2----------0---------------------|
E|---------------------------------------------------------------------|

      Em
e|-------------------------|
B|----------8~-------------|
G|----------9~-------------|
D|--------9----------------|
A|------7------------------|
E|----0--------------------|

Bridge:

      Am      Dsus4  D       Em  Emmaj7 Em
e|------------------3-2--------3---2------0--|
B|--------1-------3------------0---0------0--|
G|------2-------2--------------0---0------0--|
D|----2-------0--------------2~--------------|
A|--0----------------------2~----------------|
E|-----------------------0~------------------|

      Am      Dsus4  D       Em
e|--------0--------3-2------------------------------|
B|------1--------3----------------------------------|
G|----2--------2------------------------------------|
D|-----------0----------------2--2-2-2-2-2-2-2------|
A|--0-------------------------2--2-2-2-2-2-2-2------|
E|----------------------------0--0-0-0-0-0-0-0------|


refrain:

just play open chords

|G  |G   D|D   |D   Em|Em   |Em   G|G    D|D    |D    Em~

Interlude/Solo:

just the first two chords of Intro/Verse repeated several times

the solo will be added as soon as I have an E-guitar...

http://profile.myspace.com/index.cfm?fuseaction=user.viewProfile&friendID=203957832
Добавлено: 27.02.2012
Другие материалы по этой песне:
  • Аккорды и текст

Страница создана 27.02.2012
http://primanota.ru/connie-lynch/roxanne-chords.htm
Привет, Гость.
Предлагаем пройти революционный курс по гитаре.
Подарок от PrimaNota.Ru, забирай!