PrimaNota.ru - самый крупный в мире бесплатный архив песенных текстов, аккордов, табулатур и нот


Connan Mockasin - Megumi The Milkyway Above - таба, видео

Регистрация Запомнить меня
Войти через:  Facebook Google Twitter Vk Yandex Mail.ru

Connan Mockasin - Megumi The Milkyway Above - таба, видео

Печатать
Просмотров: 181
Уроки эстрадного вокала в Санкт-Петербурге
                    Connan Mockasin - Megumi the Milkyway Above
                    from his 2011 album 'Forever Dolphin Love'

This is in incredible song. Really simple, but the chords and the rhythm are amazing.
This song is in E flat, so you have to tune down a half step. There's no way for me
to tab this song in standard because the chords rely on the open notes a lot.

Intro:
eb|-3--3--3-3-3-3--3--3--3-3-3--3--3--3-3-3-3--3--3--3-3-3--|
Bb|-3--3--3-3-3-3--3--3--3-3-3--3--3--3-3-3-3--3--3--3-3-3--|
Gb|-0--0--0-0-0-0--0--0--0-0-0--2--2--2-2-2-2--2--2--2-2-2--|
Db|-0--0--0-0-0-0--0--0--0-0-0--0--0--0-0-0-0--0--0--0-0-0--|
Ab|-X--X--X-X-X-X--X--X--X-X-X--X--X--X-X-X-X--X--X--X-X-X--|
Eb|-3--3--3-3-3-3--3--3--3-3-3--1--1--1-1-1-1--1--1--1-1-1--|

eb|-0--0--0-0-0-0--0--0--0-0-0--3--3--3-3-3-3--3--3--3-3-3--|
Bb|-0--0--0-0-0-0--0--0--0-0-0--3--3--3-3-3-3--3--3--3-3-3--|
Gb|-0--0--0-0-0-0--0--0--0-0-0--0--0--0-0-0-0--0--0--0-0-0--|
Db|-2--2--2-2-2-2--2--2--2-2-2--0--0--0-0-0-0--0--0--0-0-0--|
Ab|-3--3--3-3-3-3--3--3--3-3-3--X--X--X-X-X-X--X--X--X-X-X--|
Eb|-3--3--3-3-3-3--3--3--3-3-3--3--3--3-3-3-3--3--3--3-3-3--|


Verse:
"It's interesting, we ought to know, originally we all came from,
A place to test the nest beyond, to Megumi the milkyway,
Like sharks that wear the knife edge stone, to pull the fish to catch the wind,
Forever be good, no love making it all, with Megumi the milkyway above"
eb|-3--3--3-3-3-3--3--3--3-3-3--3--3--3-3-3-3--3--3--3-3-3--|
Bb|-3--3--3-3-3-3--3--3--3-3-3--3--3--3-3-3-3--3--3--3-3-3--| \
Gb|-0--0--0-0-0-0--0--0--0-0-0--2--2--2-2-2-2--2--2--2-2-2--|  \
Db|-0--0--0-0-0-0--0--0--0-0-0--0--0--0-0-0-0--0--0--0-0-0--|   \
Ab|-X--X--X-X-X-X--X--X--X-X-X--X--X--X-X-X-X--X--X--X-X-X--|    |
Eb|-3--3--3-3-3-3--3--3--3-3-3--1--1--1-1-1-1--1--1--1-1-1--|    |
                                                                 | x2
eb|-0--0--0-0-0-0--0--0--0-0-0--3--3--3-3-3-3--3--3--3-3-3--|    |
Bb|-0--0--0-0-0-0--0--0--0-0-0--3--3--3-3-3-3--3--3--3-3-3--|    |
Gb|-0--0--0-0-0-0--0--0--0-0-0--0--0--0-0-0-0--0--0--0-0-0--|   /
Db|-2--2--2-2-2-2--2--2--2-2-2--0--0--0-0-0-0--0--0--0-0-0--|  /
Ab|-3--3--3-3-3-3--3--3--3-3-3--X--X--X-X-X-X--X--X--X-X-X--| /
Eb|-3--3--3-3-3-3--3--3--3-3-3--3--3--3-3-3-3--3--3--3-3-3--|


Transitional bit:
eb|-------0-0---------0--0--------0-0--------0-0--0--0--0-0-0-0--0--0--0-0-0--|
Bb|-------6-6---------0--0--------0-0--------0-0--0--0--0-0-0-0--0--0--0-0-0--|
Gb|-------7-7---------9--9--------4-4--------2-2--0--0--0-0-0-0--0--0--0-0-0--|
Db|-------7-7--------10-10--------5-5--------3-3--2--2--2-2-2-2--2--2--2-2-2--|
Ab|-5--5--5-5--------10-10--------5-5--------3-3--3--3--3-3-3-3--3--3--3-3-3--|
Eb|------------8--8---8--8--3--3--3-3--1--1--1-1--3--3--3-3-3-3--3--3--3-3-3--|


Pre-verse:
Connan does this vocalisation;
I've tabbed it out for guitar:
eb|-3-----3-3------3---|
Bb|--------------------|
Gb|---0-0-----0-0----0-| x4
Db|--------------------|
Ab|--------------------|
Eb|--------------------|

The verse chords are played in the background of the vocalisation:
eb|-3--3--3-3-3-3--3--3--3-3-3--3--3--3-3-3-3--3--3--3-3-3--|
Bb|-3--3--3-3-3-3--3--3--3-3-3--3--3--3-3-3-3--3--3--3-3-3--|
Gb|-0--0--0-0-0-0--0--0--0-0-0--2--2--2-2-2-2--2--2--2-2-2--|
Db|-0--0--0-0-0-0--0--0--0-0-0--0--0--0-0-0-0--0--0--0-0-0--|
Ab|-X--X--X-X-X-X--X--X--X-X-X--X--X--X-X-X-X--X--X--X-X-X--|
Eb|-3--3--3-3-3-3--3--3--3-3-3--1--1--1-1-1-1--1--1--1-1-1--|

eb|-0--0--0-0-0-0--0--0--0-0-0--3--3--3-3-3-3--3--3--3-3-3--|
Bb|-0--0--0-0-0-0--0--0--0-0-0--3--3--3-3-3-3--3--3--3-3-3--|
Gb|-0--0--0-0-0-0--0--0--0-0-0--0--0--0-0-0-0--0--0--0-0-0--|
Db|-2--2--2-2-2-2--2--2--2-2-2--0--0--0-0-0-0--0--0--0-0-0--|
Ab|-3--3--3-3-3-3--3--3--3-3-3--X--X--X-X-X-X--X--X--X-X-X--|
Eb|-3--3--3-3-3-3--3--3--3-3-3--3--3--3-3-3-3--3--3--3-3-3--|


Verse:
"At three years old, the curly head, with teeth that grow before his hair,
A spotty nose, he loves his voice, unlike Megum has done instead,
Leave the boy that traveled on, with neo-blossom and harnessed his boys,
They came to stay and there they were, I don't believe in what we saw"
eb|-3--3--3-3-3-3--3--3--3-3-3--3--3--3-3-3-3--3--3--3-3-3--|
Bb|-3--3--3-3-3-3--3--3--3-3-3--3--3--3-3-3-3--3--3--3-3-3--| \
Gb|-0--0--0-0-0-0--0--0--0-0-0--2--2--2-2-2-2--2--2--2-2-2--|  \
Db|-0--0--0-0-0-0--0--0--0-0-0--0--0--0-0-0-0--0--0--0-0-0--|   \
Ab|-X--X--X-X-X-X--X--X--X-X-X--X--X--X-X-X-X--X--X--X-X-X--|    |
Eb|-3--3--3-3-3-3--3--3--3-3-3--1--1--1-1-1-1--1--1--1-1-1--|    |
                                                                 | x2
eb|-0--0--0-0-0-0--0--0--0-0-0--3--3--3-3-3-3--3--3--3-3-3--|    |
Bb|-0--0--0-0-0-0--0--0--0-0-0--3--3--3-3-3-3--3--3--3-3-3--|    |
Gb|-0--0--0-0-0-0--0--0--0-0-0--0--0--0-0-0-0--0--0--0-0-0--|   /
Db|-2--2--2-2-2-2--2--2--2-2-2--0--0--0-0-0-0--0--0--0-0-0--|  /
Ab|-3--3--3-3-3-3--3--3--3-3-3--X--X--X-X-X-X--X--X--X-X-X--| /
Eb|-3--3--3-3-3-3--3--3--3-3-3--3--3--3-3-3-3--3--3--3-3-3--|


Transitional bit:
eb|-------0-0---------0--0--------0-0--------0-0--0--0--0-0-0-0--0--0--0-0-0--|
Bb|-------6-6---------0--0--------0-0--------0-0--0--0--0-0-0-0--0--0--0-0-0--|
Gb|-------7-7---------9--9--------4-4--------2-2--0--0--0-0-0-0--0--0--0-0-0--|
Db|-------7-7--------10-10--------5-5--------3-3--2--2--2-2-2-2--2--2--2-2-2--|
Ab|-5--5--5-5--------10-10--------5-5--------3-3--3--3--3-3-3-3--3--3--3-3-3--|
Eb|------------8--8---8--8--3--3--3-3--1--1--1-1--3--3--3-3-3-3--3--3--3-3-3--|


Pre-verse:
Connan does this vocalisation;
I've tabbed it out for guitar:
eb|-3-----3-3------3---|
Bb|--------------------|
Gb|---0-0-----0-0----0-| x4
Db|--------------------|
Ab|--------------------|
Eb|--------------------|

The verse chords are played in the background of the vocalisation:
eb|-3--3--3-3-3-3--3--3--3-3-3--3--3--3-3-3-3--3--3--3-3-3--|
Bb|-3--3--3-3-3-3--3--3--3-3-3--3--3--3-3-3-3--3--3--3-3-3--|
Gb|-0--0--0-0-0-0--0--0--0-0-0--2--2--2-2-2-2--2--2--2-2-2--|
Db|-0--0--0-0-0-0--0--0--0-0-0--0--0--0-0-0-0--0--0--0-0-0--|
Ab|-X--X--X-X-X-X--X--X--X-X-X--X--X--X-X-X-X--X--X--X-X-X--|
Eb|-3--3--3-3-3-3--3--3--3-3-3--1--1--1-1-1-1--1--1--1-1-1--|

eb|-0--0--0-0-0-0--0--0--0-0-0--3--3--3-3-3-3--3--3--3-3-3--|
Bb|-0--0--0-0-0-0--0--0--0-0-0--3--3--3-3-3-3--3--3--3-3-3--|
Gb|-0--0--0-0-0-0--0--0--0-0-0--0--0--0-0-0-0--0--0--0-0-0--|
Db|-2--2--2-2-2-2--2--2--2-2-2--0--0--0-0-0-0--0--0--0-0-0--|
Ab|-3--3--3-3-3-3--3--3--3-3-3--X--X--X-X-X-X--X--X--X-X-X--|
Eb|-3--3--3-3-3-3--3--3--3-3-3--3--3--3-3-3-3--3--3--3-3-3--|


Shorter verse:
"Forever be afar from here, when we receive before too long,
From scratching heads, the flame grows strong, with Megumi the milkyway above"
eb|-3--3--3-3-3-3--3--3--3-3-3--3--3--3-3-3-3--3--3--3-3-3--|
Bb|-3--3--3-3-3-3--3--3--3-3-3--3--3--3-3-3-3--3--3--3-3-3--|
Gb|-0--0--0-0-0-0--0--0--0-0-0--2--2--2-2-2-2--2--2--2-2-2--|
Db|-0--0--0-0-0-0--0--0--0-0-0--0--0--0-0-0-0--0--0--0-0-0--|
Ab|-X--X--X-X-X-X--X--X--X-X-X--X--X--X-X-X-X--X--X--X-X-X--|
Eb|-3--3--3-3-3-3--3--3--3-3-3--1--1--1-1-1-1--1--1--1-1-1--|

eb|-0--0--0-0-0-0--0--0--0-0-0--3--3--3-3-3-3--3--3--3-3-3--|
Bb|-0--0--0-0-0-0--0--0--0-0-0--3--3--3-3-3-3--3--3--3-3-3--|
Gb|-0--0--0-0-0-0--0--0--0-0-0--0--0--0-0-0-0--0--0--0-0-0--|
Db|-2--2--2-2-2-2--2--2--2-2-2--0--0--0-0-0-0--0--0--0-0-0--|
Ab|-3--3--3-3-3-3--3--3--3-3-3--X--X--X-X-X-X--X--X--X-X-X--|
Eb|-3--3--3-3-3-3--3--3--3-3-3--3--3--3-3-3-3--3--3--3-3-3--|


Transitional bit:
eb|-------0-0---------0--0--------0-0--------0-0--0--0--0-0-0-0--0--0--0-0-0--|
Bb|-------6-6---------0--0--------0-0--------0-0--0--0--0-0-0-0--0--0--0-0-0--|
Gb|-------7-7---------9--9--------4-4--------2-2--0--0--0-0-0-0--0--0--0-0-0--|
Db|-------7-7--------10-10--------5-5--------3-3--2--2--2-2-2-2--2--2--2-2-2--|
Ab|-5--5--5-5--------10-10--------5-5--------3-3--3--3--3-3-3-3--3--3--3-3-3--|
Eb|------------8--8---8--8--3--3--3-3--1--1--1-1--3--3--3-3-3-3--3--3--3-3-3--|


Outro:
eb|-3--3--3-3-3-3--3--3--3-3-3--|
Bb|-3--3--3-3-3-3--3--3--3-3-3--|
Gb|-0--0--0-0-0-0--0--0--0-0-0--| x4
Db|-0--0--0-0-0-0--0--0--0-0-0--|
Ab|-X--X--X-X-X-X--X--X--X-X-X--|
Eb|-3--3--3-3-3-3--3--3--3-3-3--|


End on this chord:
eb|-3----|
Bb|-3----|
Gb|-0----| x4
Db|-0----|
Ab|-X----|
Eb|-3----|


************************************

| /   slide up
| \   slide down
| h   hammer-on
| p   pull-off
| ~   vibrato
| +   harmonic
| x   Mute note
| .   staccato
| b   Bend
| pb  Pre-bend
| br  Bend release
| pbr Pre-bend release
| brb Bend release bend

************************************
Добавлено: 17.09.2013
Другие материалы по этой песне:
  • Аккорды и текст

Страница создана 17.09.2013
http://primanota.ru/connan-mockasin/megumi-the-milkyway-above-chords.htm
Привет, Гость.
Предлагаем пройти революционный курс по гитаре.
Подарок от PrimaNota.Ru, забирай!