PrimaNota.ru - самый крупный в мире бесплатный архив песенных текстов, аккордов, табулатур и нот


Connan Mockasin - Forever Dolphin Love Live - таба, видео

Регистрация Запомнить меня
Войти через:  Facebook Google Twitter Vk Yandex Mail.ru

Connan Mockasin - Forever Dolphin Love Live - таба, видео

Печатать
Просмотров: 212
Уроки эстрадного вокала в Санкт-Петербурге
Connan Mockasin - Forever Dolphin Love

Taken from the Forever Dolphin Live bonus CD, sold in England

Tabbed by Nicholas Gaston

(h) Hammer On (v) Vibrato

Main riff
E|-------------------------|
B|-------------------------|
G|-------------------------|
D|---6--6-----------8--8-8-|
A|-8------8-7-7-6----------|
E|----------------6--------|


Transitory riff (great on bass)
E|---------------|
B|---------------|
G|---------------|
D|---6-----6h8h8-|
A|-8-------------|
E|-------6-------|


Turnaround
E|-----------|
B|-----------|
G|-----------|
D|-----------|
A|-8--8--8-8-|
E|-----------|


Signature riff
E|----------------------------------------------------|
B|--------------------------------------------------6-|
G|-6-------5------6------5---8v--6----5------5------5-|
D|---8-------8------7------7-------8----6------6----6-|
A|-----8-------8------8-------------------8------6----|
E|----------------------------------------------------|

If you have any questions, or would like to help tab the Forever Dolphin Live version 
solo; please don't hesitate to email me at - nicholasgaston08@gmail.com

I would be glad to hear from you all, this is a great song and I hope you all have as 
much fun jamming with it as I do, I suggest the A# pentatonic scale for some extra riffing.
Добавлено: 19.06.2013
Другие материалы по этой песне:
  • Аккорды и текст

Страница создана 19.06.2013
http://primanota.ru/connan-mockasin/forever-dolphin-love-live-chords.htm
Привет, Гость.
Предлагаем пройти революционный курс по гитаре.
Подарок от PrimaNota.Ru, забирай!