PrimaNota.ru - самый крупный в мире бесплатный архив песенных текстов, аккордов, табулатур и нот


Conflict - Mighty & Superior - текст песни, таба, бас-таба, видео

Регистрация Запомнить меня
Войти через:  Facebook Google Twitter Vk Yandex Mail.ru

Conflict - Mighty & Superior - текст песни, таба, бас-таба, видео

Печатать
Просмотров: 137
Авторы музыки: Conflict

Intro
e|--------------------------------------12-15-14-15-17-12---------------|
B|------8-7-8-----------8-7-8-10-12---12-------------------12-5b---10b--|
G|--4-9-------5-4---4-9-------------------------------------------------|
D|----------------------------------------------------------------------|
A|----------------------------------------------------------------------|
E|----------------------------------------------------------------------|

Interlude
e|--------------------------------------------|
B|--------------------------------------------|
G|-9-------12--11-12---5-------4--------------|
D|-9-let---12--11-12---5-let---4-(let ring)---|
A|-7-ring--10--9--10---3-ring--2--------------|
E|--------------------------------------------|

Verse ( up and down strokes )_
e|----------------------------------------------|
B|----------------------------------------------|
G|-9-x-9-9-9---12--11-12--5-5-5-5-5--4-4-4-4-4--|
D|-9-x-9-9-9---12--11-12--5-5-5-5-5--4-4-4-4-4--|
A|-7-x-7-7-7---10--9--10--3-3-3-3-3--2-2-2-2-2--|
E|----------------------------------------------|

2nd Half
e|-------------------------------------|
B|-------------------------------------|
G|-----------------------10-10--7-7-7--|
D|--7-x-7-7-7-7-7-7-7-7--10-10--7-7-7--|
A|--7-x-7-7-7-7-7-7-7-7--8--8---5-5-5--|
E|--5-x-5-5-5-5-5-5-5-5----------------|
Добавлено: 15.03.2012
Другие материалы по этой песне:
  • Аккорды и текст

Страница создана 15.03.2012
http://primanota.ru/conflict/mighty-and-superior-chords.htm
Привет, Гость.
Предлагаем пройти революционный курс по гитаре.
Подарок от PrimaNota.Ru, забирай!