PrimaNota.ru - самый крупный в мире бесплатный архив песенных текстов, аккордов, табулатур и нот


Confide - Such Great Heights - текст песни, таба, бас-таба, видео

Регистрация Запомнить меня
Войти через:  Facebook Google Twitter Vk Yandex Mail.ru

Confide - Such Great Heights - текст песни, таба, бас-таба, видео

Печатать
Просмотров: 330
-------------------------------------------------------------------
                Such Great Heights Cover-Confide
-------------------------------------------------------------------
Tabbed by: Dan
Email: arrdmusic@gmail.com

Ok so this is a pretty simple cover but I couldn't figure out the
chorus cuz there's too much crap everywhere but here's the basics:

Verse 0:41-1:25

d|------------|
A|------------|
F|------------|
C|-5-9-7-0----|
G|-5-9-7-0----|
C|-5-9-7-0----|
Those are the chords figure out the strumming yourselves it's really not that hard.

Chorus 1:26-1:47

Haven't figured out yet.

Verse again 1:48-1:57
Here's it the same as before except at 1:58 the 7's are replaced by nothing but for the 
amount of time. Just listen to it and you'll see:

d|---------------|
A|---------------|
F|---------------|
C|-5-9---------0-|
G|-5-9-nothing-0-|
C|-5-9---------0-|

Then it goes to the chorus again.

Chorus 2:09-2:30

Bridge 2:31-2:55

d|-------------------------------------------------|
A|-------------------------------------------------|
F|-------------------------------------------------|
C|-55-55-55-55-55~-44-44-44-44-44~-22-22-22-22-20~-|
G|-55-55-55-55-55~-44-44-44-44-44~-22-22-22-22-20~-|
C|-55-55-55-55-55~-44-44-44-44-44~-22-22-22-22-20~-|
   ** ** ** ** *   ** ** ** ** *   ** ** ** ** *

Breakdown 2:56-3:12

d|----------------------------------------------------------------|
A|----------------------------------------------------------------|
F|----------------------------------------------------------------|
C|-00-00-00-00-00--00-00-00-00-00--00-00-00-00-00--00-00-00-00-00-|
G|-00-00-00-00-00--00-00-00-00-00--00-00-00-00-00--00-00-00-00-00-|
C|-00-00-00-00-00--00-00-00-00-00--00-00-00-00-00--11-11-11-11-11-|
   ** ** ** ** **  ** ** ** ** **  ** ** ** ** **  ** ** ** ** **
d|--------------------------|
A|--------------------------|
F|--------------------------|
C|-00-00-00-00-00--00-00-00-|
G|-00-00-00-00-00--00-00-00-|
C|-11-11-11-11-11--00-00-00-|
   ** ** ** ** **  ** ** **

Chorus for the rest of the song

Hope that helps! If anyone figures out the chorus hit me up!
Добавлено: 27.03.2012
Другие материалы по этой песне:

Страница создана 27.03.2012
http://primanota.ru/confide/such-great-heights-chords.htm
Привет, Гость.
Предлагаем пройти революционный курс по гитаре.
Подарок от PrimaNota.Ru, забирай!