PrimaNota.ru - самый крупный в мире бесплатный архив песенных текстов, аккордов, табулатур и нот


Confide - Millstone - текст песни, бас-таба, видео

Регистрация Запомнить меня
Войти через:  Facebook Google Twitter Vk Yandex Mail.ru

Confide - Millstone - текст песни, бас-таба, видео

Печатать
Просмотров: 124
Intro
F |------------------------------------------------------------------------|
C |------------------------------------------------------------------------|
G |------------------------------------------------------------------------|
C |-2-2-2-2--2-2-2-2--2-2-2------------------------------------------------|

Verse
F |------------------------------------------------------------------------|
C |------------------------------------------------------------------------|
G |-----2/9-9/0------------------------------------------------------------|
C |-2p0--------0--9-9-9-7-7-7-5-5-5-5-5-5-5-5------------------------------|X4

Pre Chorus
F |------------------------------------------------------------------------|
C |------------------------------------------------------------------------|
G |------------------------------------------------------------------------|
C |-10------7---5---2-2-2-2-2-2-2-2-0--------------------------------------|

Chorus
F |------------------------------------------------------------------------|
C |------------------------------------------------------------------------|
G |------------------------------------------------------------------------|
C |-2-2-2-2-2-2--12-12-12--9-9-9--7-7-7-7-7-7-7--7-7-7-7-7h9---------------|X2

F |------------------------------------------------------------------------|
C |------------------------------------------------------------------------|
G |------------------------------------------------------------------------|
C |-10-10-10-10-10-10--7-7-7--7-7h9--2-2-2-2-2-2-2-2-2-2-2-2---------------|X2

Breakdown
F |------------------------------------------------------------------------|
C |------------------------------------------------------------------------|
G |------------------------------------------------------------------------|
C |-2-2-2-2---2-2-2-2--2-2-2-----------------------------------------------|X4

Verse
F |------------------------------------------------------------------------|
C |------------------------------------------------------------------------|
G |-----2/9-9/0------------------------------------------------------------|
C |-2p0--------0--9-9-9-7-7-7-5-5-5-5-5-5-5-5------------------------------|X4

Breakdown
F |------------------------------------------------------------------------|
C |--------------10--------------------------------------------------------|
G |-----9---12-------------------------------------------------------------|
C |-2----------------------------------------------------------------------|X2

Pre Chorus
F |------------------------------------------------------------------------|
C |------------------------------------------------------------------------|
G |------------------------------------------------------------------------|
C |-10------7---5---2-2-2-2-2-2-2-2-0--------------------------------------|

Chorus
F |------------------------------------------------------------------------|
C |------------------------------------------------------------------------|
G |------------------------------------------------------------------------|
C |-2-2-2-2-2-2--12-12-12--9-9-9--7-7-7-7-7-7-7--7-7-7-7-7h9---------------|X2

F |------------------------------------------------------------------------|
C |------------------------------------------------------------------------|
G |------------------------------------------------------------------------|
C |-10-10-10-10-10-10--7-7-7--7-7h9--2-2-2-2-2-2-2-2-2-2-2-2---------------|X2

Bridge
F |------------------------------------------------------------------------|
C |------------------------------------------------------------------------|
G |------------------------------------------------------------------------|
C |-7-0-7-0-7-0-0----7-0-7-0-7-0-0---0-0-----------------------------------|X2

Breakdown
F |------------------------------------------------------------------------|
C |-------------------------10---------------------------------------------|
G |---------------9---12---------------------------------------------------|
C |-2-2--------------------------------------------------------------------|X4
Добавлено: 29.07.2012
Другие материалы по этой песне:
  • Аккорды и текст

Страница создана 23.03.2012
http://primanota.ru/confide/millstone-chords.htm
Привет, Гость.
Предлагаем пройти революционный курс по гитаре.
Подарок от PrimaNota.Ru, забирай!