PrimaNota.ru - самый крупный в мире бесплатный архив песенных текстов, аккордов, табулатур и нот


Confide - Dreaming A Reality - текст песни, таба, видео

Регистрация Запомнить меня
Войти через:  Facebook Google Twitter Vk Yandex Mail.ru

Confide - Dreaming A Reality - текст песни, таба, видео

Печатать
Просмотров: 122
lead  (this part in tremolo picking and its difficult to get it exactly right so bear with me)
d|-----------------------------------------------------------------------------|
A|-----------------------------------------------------------------------------|
F|-----------------------------------------------------------------------------|
C|0-5-7-5-7-5-0-3-5-3-7-3-5-3-7-2-3--------------------------------------------|4x
G|-----------------------------------------------------------------------------|
C|-----------------------------------------------------------------------------|
rhythm
d|-----------------------------------------------------------------------------|
A|-----------------------------------------------------------------------------|
F|-----------------------------------------------------------------------------|
C|0---3---0-------0---3---0----------------------------------------------------|2x
G|0---3---0-------0---3---0----------------------------------------------------|2x
C|0---3---0-------0---3---0----------------------------------------------------|2x

verse
lead  (this is also tremolo picking)  play 3x, first time w/out rhythm
|----------------------------------------------------------------------------|
|----------------------------------------------------------------------------|
|----------------------------------------------------------------------------|
|0-5-0-7-0-8-0-10-0-8-0-7-0-5-0-3-(3x)0-5-0-7-0-8-0-10-0-12-0-10-0-8-0-+5 |--|
|----------------------------------------------------------------------------|
rhythm (strumming pattern doesnt really matter much)
|-----------------------------------------------------------------------------|
|-----------------------------------------------------------------------------|
|-----------------------------------------------------------------------------|
|0---10---7---3-5-------------------------------------------------------------|
|0---10---7---3-5-------------------------------------------------------------|
|0---10---7---3-5-------------------------------------------------------------|
they put in a harmonic befor they switch

chorus
lead
|-----------------------------------------------------------------------------|
|-----------------------------------------------------------------------------|
|-----------------------------------------------------------------------------|
|15-12-15---------------------------------------------------------------------|
|15-12-15---------------------------------------------------------------------|7x
|15-12-15---------------------------------------------------------------------|

|-----------------------------------------------------------------------------|
|-----------------------------------------------------------------------------|
|-----------------------------------------------------------------------------|
|0-3--------------------------------------------------------------------------|
|0-3--------------------------------------------------------------------------|7x
|0-3--------------------------------------------------------------------------|

verse
chorus
solo(havnt tabbed it)

|---------------------------------------------------------------------------|
|---------------------------------------------------------------------------|
|---------------------------------------------------------------------------|
|---------------------------------------------------------------------------|
|---------------------------------------------------------------------------|
|---------------------------------------------------------------------------|

|---------------------------------------------------------------------------|
|---------------------------------------------------------------------------|
|---------------------------------------------------------------------------|
|---------------------------------------------------------------------------|
|---------------------------------------------------------------------------|
|---------------------------------------------------------------------------|


| /  slide up
| \  slide down
| h  hammer-on
| p  pull-off
| ~  vibrato
| +  harmonic
| x  Mute note
Добавлено: 11.07.2012
Другие материалы по этой песне:
  • Аккорды и текст

Страница создана 03.05.2012
http://primanota.ru/confide/dreaming-a-reality-chords.htm
Привет, Гость.
Предлагаем пройти революционный курс по гитаре.
Подарок от PrimaNota.Ru, забирай!