PrimaNota.ru - самый крупный в мире бесплатный архив песенных текстов, аккордов, табулатур и нот


Confide - Cant See The Forest For The Trees - текст песни, таба, бас-таба, видео

Регистрация Запомнить меня
Войти через:  Facebook Google Twitter Vk Yandex Mail.ru

Confide - Cant See The Forest For The Trees - текст песни, таба, бас-таба, видео

Печатать
Просмотров: 146
Уроки эстрадного вокала в Санкт-Петербурге
Enjoy its 100% correct!

Intro
D |-8-8-8-8-8-8-8-8-8-8-8-8-------------------------------------|
A |-6-6-6-6-6-6-6-6-6-6-6-6-------------------------------------|
F  |-9-9-9-9-9-9-9-9-9-9-9-9-repeat-----------------------------|
C |-------------------------------------------------------------|
G |-------------------------------------------------------------|
C |-------------------------------------------------------------|


D |-8-8-8-8--8-8-8--8-8-8-8-8-8-8---------------------------------------------|
A |-6-6-6-6--6-6-6--6-6-6-6-6-6-6---------------------------------------------|
F  |-9-9-9-9--9-9-9--9-9-9-9-9-9-9--------------------------------------------|
C |-0-0-0-0--0-0-0--0-0-0-0-0-0-0---------------------------------------------|
G |-0-0-0-0--0-0-0--0-0-0-0-0-0-0---------------------------------------------|
C |-0-0-0-0--0-0-0--0-0-0-0-0-0-0---------------------------------------------|


D |-8-8-8-8--8-8-8--8-8-8-8-8-8-8---------------------------------------------|
A |-6-6-6-6--6-6-6--6-6-6-6-6-6-6---------------------------------------------|
F  |-9-9-9-9--9-9-9--9-9-9-9-9-9-9--------------------------------------------|
C |-8-8-8-8--8-8-8--8-8-8-8-8-8-8---------------------------------------------|
G |-8-8-8-8--8-8-8--8-8-8-8-8-8-8---------------------------------------------|
C |-8-8-8-8--8-8-8--8-8-8-8-8-8-8-repeat--------------------------------------|


D |-8-8-8-8-8-8-8-8-8-8-8-8--8-8-8-8-8-8-8-8-8-8-8-8-------------------------|
A |-6-6-6-6-6-6-6-6-6-6-6-6--6-6-6-6-6-6-6-6-6-6-6-6-------------------------|
F  |-9-9-9-9-9-9-9-9-9-9-9-9--9-9-9-9-9-9-9-9-9-9-9-9------------------------|
C |-0-7-0-7-0-7-0-7-0-7-0-7--7-0-7-0-7-0-7-0-7-0-7-0-------------------------|
G |-0-7-0-7-0-7-0-7-0-7-0-7--7-0-7-0-7-0-7-0-7-0-7-0-------------------------|
C |-0-7-0-7-0-7-0-7-0-7-0-7--7-0-7-0-7-0-7-0-7-0-7-0-------------------------|


D |----------------------------------------------------------------------------|
A |------10-10-10-----------10-10-10--------6-10-10-10-------------------------|
F  |-9-10-10-10-10-----9-10--10-10-10--------9-10-10-10------------------------|
C |------8--8--8------------8--8--8-------0---8--8--8--------------------------|
G |------8--8--8------------8--8--8-------0---8--8--8--------------------------|
C |------8--8--8- strum------8--8--8 strum--0---8--8--8 strum------------------|


D |-8-8-8-8-8-8-8-8-8-8-8-8-------------------------------------|
A |-6-6-6-6-6-6-6-6-6-6-6-6-------------------------------------|
F  |-9-9-9-9-9-9-9-9-9-9-9-9-repeat-----------------------------|
C |-------------------------------------------------------------|
G |-------------------------------------------------------------|
C |-------------------------------------------------------------|


D |-8-8-8-8--8-8-8--8-8-8-8-8-8-8---------------------------------------------|
A |-6-6-6-6--6-6-6--6-6-6-6-6-6-6---------------------------------------------|
F  |-9-9-9-9--9-9-9--9-9-9-9-9-9-9--------------------------------------------|
C |-0-0-0-0--0-0-0--0-0-0-0-0-0-0---------------------------------------------|
G |-0-0-0-0--0-0-0--0-0-0-0-0-0-0---------------------------------------------|
C |-0-0-0-0--0-0-0--0-0-0-0-0-0-0---------------------------------------------|


D |-8-8-8-8--8-8-8--8-8-8-8-8-8-8---------------------------------------------|
A |-6-6-6-6--6-6-6--6-6-6-6-6-6-6---------------------------------------------|
F  |-9-9-9-9--9-9-9--9-9-9-9-9-9-9--------------------------------------------|
C |-8-8-8-8--8-8-8--8-8-8-8-8-8-8---------------------------------------------|
G |-8-8-8-8--8-8-8--8-8-8-8-8-8-8---------------------------------------------|
C |-8-8-8-8--8-8-8--8-8-8-8-8-8-8-repeat--------------------------------------|


D |-8-8-8-8-8-8-8-8-8-8-8-8--8-8-8-8-8-8-8-8-8-8-8-8-------------------------|
A |-6-6-6-6-6-6-6-6-6-6-6-6--6-6-6-6-6-6-6-6-6-6-6-6-------------------------|
F  |-9-9-9-9-9-9-9-9-9-9-9-9--9-9-9-9-9-9-9-9-9-9-9-9------------------------|
C |-0-7-0-7-0-7-0-7-0-7-0-7--7-0-7-0-7-0-7-0-7-0-7-0-------------------------|
G |-0-7-0-7-0-7-0-7-0-7-0-7--7-0-7-0-7-0-7-0-7-0-7-0-------------------------|
C |-0-7-0-7-0-7-0-7-0-7-0-7--7-0-7-0-7-0-7-0-7-0-7-0-------------------------|

D |-0-----------------------------------0-0--------0-0-0-0-0-----------|
A |-0-----------------------------------0---0------0-0-0-0-0-----------|
F  |-5-----------------------------------5-----5----5-5-5-5-5----------|
C |-5----2-2-0-2-0-2-0----2-2-0-2-0-2-0-5-------5--5-5-5-5-5-----------|
G |-2----2-2-0-2-0-2-0----2-2-0-2-0-2-0------------2-2-2-2-2-----------|
C |-2----2-2-0-2-0-2-0----2-2-0-2-0-2-0------------2-2-2-2-2 strum-----|


D |------------------------------------------------------------------------|
A |------------------------------------------------------------------------|
F  |-----------------------------------------------------------------------|
C |-2-2-0-2-0-2-0-2-2-0-2-0-2-0-2-2-0-2-0-2-0-2-2-0-2-0-2------------------|
G |-2-2-0-2-0-2-0-2-2-0-2-0-2-0-2-2-0-2-0-2-0-2-2-0-2-0-2-0----------------|
C |-2-2-0-2-0-2-0-2-2-0-2-0-2-0-2-2-0-2-0-2-0-2-2-0-2-0-2-0 repeat---------|
Добавлено: 22.05.2012
Другие материалы по этой песне:

Страница создана 21.02.2012
http://primanota.ru/confide/cant-see-the-forest-for-the-trees-chords.htm
Привет, Гость.
Предлагаем пройти революционный курс по гитаре.
Подарок от PrimaNota.Ru, забирай!