PrimaNota.ru - самый крупный в мире бесплатный архив песенных текстов, аккордов, табулатур и нот


Confession - The End Is Near - таба, видео

Регистрация Запомнить меня
Войти через:  Facebook Google Twitter Vk Yandex Mail.ru

Confession - The End Is Near - таба, видео

Печатать
Просмотров: 195
Уроки эстрадного вокала в Санкт-Петербурге
-------------------------------------------------------------------------------
                            The End Is Near - The Confession
-------------------------------------------------------------------------------
Tabbed by:Darren
Email:darryberry92@yahoo.com

Tuning:drop C

Intro:

D|---------------------------------------------------------------------------|
A|---------------------------------------------------------------------------|
F|---------------------------------------------------------------------------|
C|--14---------------------------15------------------------------------------|
G|-----12----12----12------12--------12----12------12---- 12-----------------|
C|--------12----12-----12----------------12----12------12--------------------|

D|------------------------------------------------------------------------------------|
A|------------------------------------------------------------------------------------|
F|------------------------------------------------------------------------------------|
C|-15---------14--------------------------------------14------15-----------14----14\-17|
G|-----10----------10----15-------15----10--------15------15----------10 -----10------|
C|----------10---------------10------10--------------------------10-------------------|

e|---------------------------------------------------------------------------|
A|---------------------------------------------------------------------------|
F|---------------------------------------------------------------------------|
C|---12---15--17-15--14---------12----  12-15--17----------------------------|
G|---------------------------12--------------------12----12----12------------|
C|-12------------------12-----------0-----------------12----12---------------|

D|---------------------------------------------------------------------------|
A|---------------------------------------------------------------------------|
F|---------------------------------------------------------------------------|
C|--19-------------------------------19--------------------------------------|
G|------12-----12-----12-----12-----------10---------------------------------|
C|----------12-----12-----12------------------10-----------------------------|
     (finger pick)

D||--------------------------------------------------------------------------|
A|---------------------------------------------------------------------------|
F|---------------------------------------------------------------------------|
C|-17--------14-----------------------14-----14--17--14---19----17------14\20|
G|----10---------15-----10-----15--------------------------------------------|
C|-------10----------10-----10-----------10----------------------------------|

D|---------------------------------------------------------------------------|
A|---------------------------------------------------------------------------|
F|---------------------------------------------------------------------------|
C|-----19-20-19-17 19--------------------------------------------------------|
G|---------------------------------------------------------------------------|
C|-12------------------------------------------------------------------------|

D|---------------------------------------------------------------------------|
A|---------------------------------------------------------------------------|
F|---7-------5--------3------------------------------------------------------|
C|---7-------5--------3-----7-5--------------5\7---8----7----5--5\7----------|
G|---5-x16---3--x16---1-----7-5--3-2-0---00------0---0----0------------------|
C|--------------------------7-5--3-2-0---00------0---0----0------------------|

D|---------------------------------------------------------------------------|
A|---------------------------------------------------------------------------|
F|---7-------5--------3------------------------------------------------------|
C|---7-------5--------3------------------------------------------------------|
G|---5-x16---3--x16---1------------------------------3-h5p3------------------|
C|--------------------------7---5------000----000------------3~---000--------|
                                             



| /  slide up
| \  slide down
| h  hammer-on
| p  pull-off
| ~  vibrato
| +  harmonic
| x  Mute note
===============================================================================
Добавлено: 27.06.2012
Другие материалы по этой песне:
  • Аккорды и текст

Страница создана 23.03.2012
http://primanota.ru/confession/the-end-is-near-chords.htm
Привет, Гость.
Предлагаем пройти революционный курс по гитаре.
Подарок от PrimaNota.Ru, забирай!