PrimaNota.ru - самый крупный в мире бесплатный архив песенных текстов, аккордов, табулатур и нот


Confession - That Scag His Floozie Theyre Gonna Die - таба, видео

Регистрация Запомнить меня
Войти через:  Facebook Google Twitter Vk Yandex Mail.ru

Confession - That Scag His Floozie Theyre Gonna Die - таба, видео

Печатать
Просмотров: 146
Уроки эстрадного вокала в Санкт-Петербурге
Band:  Confession
Song:  That Scag & His Floozie, They're Gonna Die
Album: Cancer

Tuning: Drop G# [G#,D#,G#,C#,F,A#]

Not 100% perfect, but I feel it's pretty close.
Enjoy!
Probably my second favourite Confession song.


UPDATE: Thanks to Phoenix322 for pointing out the changes made to
        the intro and Verse A.


Intro

GUITAR ONE

A#|--------------------------------------------------------|
F |--------------------------------------------------------|
C#|--------------------------------------------------------|
G#|-12~~~~~~~~~~~~~~~~~~~~~~~~-8~~~~~~~~~~~~-5~~~~~~~~~~~~-|
D#|-12~~~~~~~~~~~~~~~~~~~~~~~~-8~~~~~~~~~~~~-5~~~~~~~~~~~~-|
G#|-12~~~~~~~~~~~~~~~~~~~~~~~~-8~~~~~~~~~~~~-5~~~~~~~~~~~~-|

GUITAR TWO

A#|---------------------------------------------------------|
F |----6~~~~~~~~~~-6~~~~~~~~~~-6~~~~~~~~~~~~-6~~~~~~~~~~~~--|
C#|--9~~~~~~~~~~~9~~~~~~~~~~~~~~-9~~~~~~~~~~~-9~~~~~~~~~~~~-|
G#|---------------------------------------------------------|
D#|---------------------------------------------------------|
G#|---------------------------------------------------------|

continued...

GUITAR ONE

A#|--------------------------------------------------------|
F |--------------------------------------------------------|
C#|--------------------------------------------------------|
G#|-12~~~~~~~~~~~~~~~~~~~~~~~~-5--------5-----8----7---8-7-|
D#|-12~~~~~~~~~~~~~~~~~~~~~~~~-5----8-----8---8------------|
G#|-12~~~~~~~~~~~~~~~~~~~~~~~~-5--5---5-------8--8---8-----|
PM                             .  .   .          .   .

GUITAR TWO

A#|---------------------------------------------------------|
F |----6~~~~~~~~~~-6~~~~~~~~~~-6~~~~~~~~~~~~-6~~~~~~~~~~~~--|
C#|--9~~~~~~~~~~~9~~~~~~~~~~~~~~-9~~~~~~~~~~~-9~~~~~~~~~~~~-|
G#|---------------------------------------------------------|
D#|---------------------------------------------------------|
G#|---------------------------------------------------------|


Verse A x2

GUITAR ONE

A#|--------------------------------------------|
F |--------------------------------------------|
C#|--------------------------------------------|
G#|-----------------8----7---8-7---5-------5---|
D#|---00000---00000-8--------------5----8----8-|
G#|-0-00000-0-00000-8--8---8-------5--5---5----|
PM    .....   ..... .  .   .          .   .

GUITAR TWO

A#|---------------------------------------------------------|
F |----6~~~~~~~~~~-6~~~~~~~~~~-6~~~~~~~~~~~~-6~~~~~~~~~~~~--|
C#|--9~~~~~~~~~~~9~~~~~~~~~~~~~~-9~~~~~~~~~~~-9~~~~~~~~~~~~-|
G#|---------------------------------------------------------|
D#|---------------------------------------------------------|
G#|---------------------------------------------------------|

continued...

GUITAR ONE

A#|---------------------------------------------|
F |---------------------------------------------|
C#|---------------------------------------------|
G#|-----------------5--------5-----8----7---8-7-|
D#|---00000---00000-5----8-----8---8------------|
G#|-0-00000-0-00000-5--5---5-------8--8---8-----|
PM    .....   .....    .   .          .   .

GUITAR TWO

A#|---------------------------------------------------------|
F |----6~~~~~~~~~~-6~~~~~~~~~~-6~~~~~~~~~~~~-6~~~~~~~~~~~~--|
C#|--9~~~~~~~~~~~9~~~~~~~~~~~~~~-9~~~~~~~~~~~-9~~~~~~~~~~~~-|
G#|---------------------------------------------------------|
D#|---------------------------------------------------------|
G#|---------------------------------------------------------|

Post-Verse A

GUITAR ONE

A#|---------------------------------------------------------|
F |---------------------------------------------------------|
C#|---------------------------------------------------------|
G#|-5--------5-----8----7---8-7-0~~~~~~~~~~~~~~~~~~~~~~~~~~-|
D#|-5----8-----8---8------------0~~~~~~~~~~~~~~~~~~~~~~~~~~-|
G#|-5--5---5-------8--8---8-----0~~~~~~~~~~~~~~~~~~~~~~~~~~-|
PM     .   .          .   .


PM

GUITAR TWO

A#|---------------------------------------------------------|
F |---6~~~~~~~~~~~~-6~~~~~~~~~~~~---------------------------|
C#|-----9~~~~~~~~~~~-9~~~~~~~~~~~~~~~~~~~~~~~~~~~~~~~~~~~~~-|
G#|---------------------------------------------------------|
D#|---------------------------------------------------------|
G#|---------------------------------------------------------|


Pre-Verse B

GUITAR TWO (Bass on EQ turned  down)

A#|-----------|
F |-----------|
C#|-----------|
G#|-----------|
D#|-----------|
G#|-1-1-0h1-1-|
PM          .


Verse B x8

BOTH GUITARS

A#|-----------------------|
F |-----------------------|
C#|-----------------------|
G#|-0-00-1p0-00-0-0-0h1-1-|
D#|-0-00-1p0-00-0-0-0h1-1-|
G#|-0-00-1p0-00-1-1-0h1-1-|
PM    ..     ..         .


Post-Verse B

GUITAR ONE

A#|-------------------------------------------------------|
F |-------------------------------------------------------|
C#|-------------------------------------------------------|
G#|-0~~~~~~~~~~~~~~~~~~~~~~~~-5--------5-----8----7---8-7-|
D#|-0~~~~~~~~~~~~~~~~~~~~~~~~-5----8-----8---8------------|
G#|-0~~~~~~~~~~~~~~~~~~~~~~~~-5--5---5-------8--8---8-----|
PM                               .   .          .   .

GUITAR TWO

A#|---------------------------------------------------------|
F |----6~~~~~~~~~~-6~~~~~~~~~~-6~~~~~~~~~~~~-6~~~~~~~~~~~~--|
C#|--9~~~~~~~~~~~9~~~~~~~~~~~~~~-9~~~~~~~~~~~-9~~~~~~~~~~~~-|
G#|---------------------------------------------------------|
D#|---------------------------------------------------------|
G#|---------------------------------------------------------|


Verse C

Part One x2

GUITAR ONE

A#|---------------------------------------------8~~~~~~~~~-|
F |------------------------------------------------6~~~~~~-|
C#|---------------------------------------------------9~~~-|
G#|-0~~~~~~~~~~~~~~~~~~~~~~~~~~~~~~~~~~~~~~~~~~~~~~~~~~~~~-|
D#|-0~~~~~~~~~~~~~~~~~~~~~~~~~~~~~~~~~~~~~~~~~~~~~~~~~~~~~-|
G#|-0~~~~~~~~~~~~~~~~~~~~~~~~~~~~~~~~~~~~~~~~~~~~~~~~~~~~~-|

Couldn't figure out GUITAR TWO.


Part Two x2

GUITAR ONE

A#|------------------------8~~~~~~~~~-|
F |---------------------------6~~~~~~-|
C#|------------------------------9~~~-|
G#|-0~~~~~~~~~~~~~~~~~~~~~~~~~~~~~~~~-|
D#|-0~~~~~~~~~~~~~~~~~~~~~~~~~~~~~~~~-|
G#|-0~~~~~~~~~~~~~~~~~~~~~~~~~~~~~~~~-|


Breakdown x2

Part One

BOTH GUITARS

A#|----------------------------------|
F |----------------------------------|
C#|----------------------------------|
G#|-0-0-00----0-00-0--0000-0000-0-00-|
D#|-0-0-00----0-00-0--0000-0000-0-00-|
G#|-0-0-00----0-00-0--0000-0000-0-00-|
PM  . . ..    . .. .  .... .... . ..

Part Two

A#|-----------------------------------------------|
F |-----------------------------------------------|
C#|-----------------------------------------------|
G#|-0-0-00----0-00-0--0000-000------8---------5---|
D#|-0-0-00----0-00-0--0000-000---12---12----8---8-|
G#|-0-0-00----0-00-0--0000-000-8----------5-------|
PM  . . ..    . .. .  .... ... .          .


Verse D x4

GUITAR ONE

A#|---------------------------------------|
F |---------------------------------------|This 5 at the end carries
C#|---------------------------------------|straight back to the start
G#|---------------------------------------|of this riff.
D#|-5-----5-5-----5-7-----7-8-----7h8-3h5-|
G#|---000-----000-----000-----000---------|
PM    ...     ...     ...     ...

GUITAR TWO

A#|--------------------------------------------|
F |--------------------------------------------|This 8 at the end carries
C#|--------------------------------------------|straight back to the start
G#|--------------------------------------------|of this riff.
D#|-8-----8-8-----8-10-----10-12-----12h13-7h8-|
G#|---000-----000------000-------000-----------|
PM    ...     ...      ...       ...


Verse B x4

BOTH GUITARS

A#|-----------------------|
F |-----------------------|
C#|-----------------------|
G#|-0-00-1p0-00-0-0-0h1-1-|
D#|-0-00-1p0-00-0-0-0h1-1-|
G#|-0-00-1p0-00-1-1-0h1-1-|
PM    ..     ..         .


Intro

GUITAR ONE

A#|--------------------------------------------------------|
F |--------------------------------------------------------|
C#|--------------------------------------------------------|
G#|-12~~~~~~~~~~~~~~~~~~~~~~~~-8~~~~~~~~~~~~-5~~~~~~~~~~~~-|
D#|-12~~~~~~~~~~~~~~~~~~~~~~~~-8~~~~~~~~~~~~-5~~~~~~~~~~~~-|
G#|-12~~~~~~~~~~~~~~~~~~~~~~~~-8~~~~~~~~~~~~-5~~~~~~~~~~~~-|

GUITAR TWO

A#|---------------------------------------------------------|
F |----6~~~~~~~~~~-6~~~~~~~~~~-6~~~~~~~~~~~~-6~~~~~~~~~~~~--|
C#|--9~~~~~~~~~~~9~~~~~~~~~~~~~~-9~~~~~~~~~~~-9~~~~~~~~~~~~-|
G#|---------------------------------------------------------|
D#|---------------------------------------------------------|
G#|---------------------------------------------------------|

continued...

GUITAR ONE

A#|--------------------------------------------------------|
F |--------------------------------------------------------|
C#|--------------------------------------------------------|
G#|-12~~~~~~~~~~~~~~~~~~~~~~~~-5--------5-----8----7---8-7-|
D#|-12~~~~~~~~~~~~~~~~~~~~~~~~-5----8-----8---8------------|
G#|-12~~~~~~~~~~~~~~~~~~~~~~~~-5--5---5-------8--8---8-----|
PM                             .  .   .          .   .

GUITAR TWO

A#|---------------------------------------------------------|
F |----6~~~~~~~~~~-6~~~~~~~~~~-6~~~~~~~~~~~~-6~~~~~~~~~~~~--|
C#|--9~~~~~~~~~~~9~~~~~~~~~~~~~~-9~~~~~~~~~~~-9~~~~~~~~~~~~-|
G#|---------------------------------------------------------|
D#|---------------------------------------------------------|
G#|---------------------------------------------------------|


Verse A - Repeat until fade out

GUITAR ONE

A#|--------------------------------------------|
F |--------------------------------------------|
C#|--------------------------------------------|
G#|-----------------8----7---8-7---5-------5---|
D#|---00000---00000-8--------------5----8----8-|
G#|-0-00000-0-00000-8--8---8-------5--5---5----|
PM    .....   ..... .  .   .          .   .

GUITAR TWO

A#|---------------------------------------------------------|
F |----6~~~~~~~~~~-6~~~~~~~~~~-6~~~~~~~~~~~~-6~~~~~~~~~~~~--|
C#|--9~~~~~~~~~~~9~~~~~~~~~~~~~~-9~~~~~~~~~~~-9~~~~~~~~~~~~-|
G#|---------------------------------------------------------|
D#|---------------------------------------------------------|
G#|---------------------------------------------------------|

continued...

GUITAR ONE

A#|---------------------------------------------|
F |---------------------------------------------|
C#|---------------------------------------------|
G#|-----------------5--------5-----8----7---8-7-|
D#|---00000---00000-5----8-----8---8------------|
G#|-0-00000-0-00000-5--5---5-------8--8---8-----|
PM    .....   .....    .   .          .   .

GUITAR TWO

A#|---------------------------------------------------------|
F |----6~~~~~~~~~~-6~~~~~~~~~~-6~~~~~~~~~~~~-6~~~~~~~~~~~~--|
C#|--9~~~~~~~~~~~9~~~~~~~~~~~~~~-9~~~~~~~~~~~-9~~~~~~~~~~~~-|
G#|---------------------------------------------------------|
D#|---------------------------------------------------------|
G#|---------------------------------------------------------|
Добавлено: 31.05.2012
Другие материалы по этой песне:
  • Аккорды и текст

Страница создана 31.05.2012
http://primanota.ru/confession/that-scag-his-floozie-theyre-gonna-die-chords.htm
Привет, Гость.
Предлагаем пройти революционный курс по гитаре.
Подарок от PrimaNota.Ru, забирай!